Oops, an error
Loading. Please wait.

Cuando Me Enamoro Bass

127 views 1 this week
no commentswrite comment
1 2 3 4 5
3 more votes to show rating
add to favorites
×
Save as Personal and add changes to this tab that will be seen only by you. Learn more ›
×
You can save this tab as Personal to edit and correct it or add notes. All changes will be seen only by you. Learn more »
save as personal
new!
launch autoscroll
font size
0
reset
guitar tuner
Autoscroll
slow
fast
+/-
esc
set tempo
stop
Bueno... esta es mi primera canción.
Vi que hay versiones en youtube que no son la original y tienen arreglos
Por eso decidí formular las notas de la canción original....
Subí un video con el modo de tocarlo...


Intro:
  Uhh   uh uh uhu uhu uhh    uhu uhu uhu    uh           uhu uh uhu
G-----------------------------------------------------------------------
D-6------6-6--------689-------9-9----9/4-4-----4-4--------4------4-4----
A----6-6-------666-------9-9------999-------4-4----4-4-------4-4-----4-4
E-----------------------------------------------------------------------

Si pudiera bajarte una estrella del cielo
G-------------------
D-4-6-------6-------
A------6-6-----6-6--
E-------------------

Lo haria sin pensarlo dos veces
G-------------------
D-6---4-4-----4-4---
A---2------2--------
E-------------------

Por que te quiero ay
G-------------------
D---4------4--------
A-2----4-4----4-4---
E-------------------

Y hasta un lucero
G-------------------
D-4----6-6-----6-6--
A---4-------4-------
E-------------------

Y si tuviera el naufragio de un sentimiento
G-------------------
D---6-------6-------
A-4----6-6-----6-6--
E-------------------

Seria un velero en la isla
G-------------------
D-6---4-4-----4-4---
A---2------2--------
E-------------------

De tus deseos oh
G-------------------
D---4------4-4-------
A-2----4-4-----4-4---
E-------------------

De tus deseos oh
G-------------------
D-4----6-6-----6-6--
A---4-------4-------
E-------------------

Precoro:
Pero por dentro Entiende que no puedo y a veces me pierdo
G---------------------------------
D------8-8-----8-8-------4-4------
A-4-66-------6-------6-2------2---
E---------------------------------

Coro:
Cuando me enamoro aveces desespero
G-------------------
D-44-4-4-------4-4--
A---2-4---4-4-------
E-------------------

Cuando me enamoro cuando menos me lo espero
G-------------------
D--------4------4-4-
A-4-4-------4-4-----
E-------------------

Pero me enamoro Se detiene el tiempo
G----------------------------------
D--------4----6-6-----6-6-------6-6
A-4-4------4-------4-------4-4-----
E----------------------------------

Me  viene el alma al cuerpo, sonrio
G---------------------------------------------
D----6-6-----6------6-6-----6----4-4----4-4---
A-4-------4----6-6------6-6---2-------2------2
E---------------------------------------------

Cuando me enamoro
G-------------------
D-4------4-4-------4
A---4-4-------4-4---
E-------------------

Intermedio:
Uhh   uh uh uhu uhu uhh    uhu uhu uhu    uh           uhu uh uhu
G-----------------------------------------------------------------------
D-6------6-6--------689-------9-9----9/4-4-----4-4--------4------4-4----
A----6-6-------666-------9-9------999-------4-4----4-4-------4-4-----4-4
E-----------------------------------------------------------------------

Si la luna seria tu premio
G-------------------
D-4-6-------6-------
A------6-6-----6-6--
E-------------------

Yo juraria hacer cualquier cosa
G-------------------
D-6---4-4-----4-4---
A---2------2--------
E-------------------

Por ser su dueño
G-------------------
D---4------4--------
A-2----4-4----4-4---
E-------------------

Por ser su dueño
G-------------------
D-4----6-6-----6-6--
A---4-------4-------
E-------------------

Y si en tus sueños  escuchas el llanto de mis lamentos
G-------------------
D---6-------6-------
A-4----6-6-----6-6--
E-------------------

En tus sueños no sigas dormida
G-------------------
D-6---4-4-----4-4---
A---2------2--------
E-------------------

Que es verdadero, hay
G-------------------
D---4------4-4-------
A-2----4-4-----4-4---
E-------------------

No es un sueño, no
G-------------------
D-4----6-6-----6-6--
A---4-------4-------
E-------------------

Precoro:
Me alegro que aveces el final no encuentre su momento ohh no
G---------------------------------
D------8-8-----8-8-------4-4------
A-4-66-------6-------6-2------2---
E---------------------------------

Coro:
Cuando me enamoro aveces desespero
G-------------------
D-44-4-4-------4-4--
A---2-4---4-4-------
E-------------------

Cuando me enamoro cuando menos me lo espero
G-------------------
D--------4------4-4-
A-4-4-------4-4-----
E-------------------

Pero me enamoro Se detiene el tiempo
G----------------------------------
D--------4----6-6-----6-6-------6-6
A-4-4------4-------4-------4-4-----
E----------------------------------

Me  viene el alma al cuerpo, sonrio (sonrio)
G--------------------------------------
D----6-6-----6------6-6-----6----4-4---
A-4-------4----6-6------6-6---2-------2
E--------------------------------------

Cuando me enamoro aveces desespero
G-------------------
D-44-4-4-------4-4--
A---2-4---4-4-------
E-------------------

Cuando me enamoro cuando menos me lo espero
G-------------------
D--------4------4-4-
A-4-4-------4-4-----
E-------------------

Pero me enamoro Se detiene el tiempo
G----------------------------------
D--------4----6-6-----6-6-------6-6
A-4-4------4-------4-------4-4-----
E----------------------------------

Me  viene el alma al cuerpo, sonrio (sonrio)
G--------------------------------------
D----6-6-----6------6-6-----6----4-4---
A-4-------4----6-6------6-6---2-------2
E--------------------------------------

Cuando me enamoro
G-------------------
D-4------4-4-------4
A---4-4-------4-4---
E-------------------

Final:
Uhh   uh uh uhu uhu uhh    uhu uhu uhu   uh
G-----------------------------------------
D-6------6-6--------689-------9-9----9/4-4
A----6-6-------666-------9-9------999-----
E-----------------------------------------
Suggest correction
Give kudos to tab author, rate the tab!
1 2 3 4 5
comments
print report bad tab
guest
Wanna post a correction for this tab? Suggest correction