Oops, an error
Loading. Please wait.

Me Enamoro De Ella Bass

122 views 1 this week
no commentswrite comment
1 2 3 4 5
3 more votes to show rating
add to favorites
launch autoscroll
font size
0
reset
guitar tuner
×
Best way to learn
"Me Enamoro De Ella"
Autoscroll
slow
fast
+/-
esc
set tempo
stop
Los tabs estan divididos por frases,
no necesariamente por compás.

Verso 1:     (Yo era de un barrio pobre?)

G |-----------------------------------|----------|---------------------|
D |------------2--------------2-2-----|--5-5-4---|---------------------|
A |---------5-------5-------5-----5---|----------|-----------5---5-5---|
E |-----3--------------3--------------|----------|--2---5--------------|

g |-------------------------------------|
A |-------------------------------------|
D |------------------5----------------5-|
E |----5---3--2-2-------5---3--2-2------|


G |----------------------------------|----------------------------------|
D |--2---2-2--------------------2----|-------------------2--------5-5---|
A |------------5---5--3--2-2---------|--------5----------------2------2-|
E |---------------------------5------|--3---3----3---3-----3------------|

G |--------------------------------------|-----------------------------|
D |--------------------------------------|----2----------2-------------|
A |------5--5-5--------5----------5------|-------5--5--------5--5--5---|
E |--3------------3--3------2--5------5--|--5----------5---------------|

G |---------------------------------|
D |---2---2-------------------------|
A |-----2-----5----5---3-3p2--------|
E |----------5---------------5--5---|

Coro:

G |-------------------------------------------------------------------|
D |--------------------------------------2----------------------------|
A |----5---5--5--------5-----------5-------2----------------5----5----|
E |--3---3---------2----2----2--2-------------5---3----2------2-------|

G |---------------------------------------------------------|-----------|
D |-------------------------------------2------2------------|-----------|
A |-----5-----5--5---------5---------5----2--------5----5---|-----3-3---|
E |--3-----3----------2---2----2--2----------5--------5---5-|-1-1-----3-|

Verso 2: (Ella en un club de tenis?)

G |----------------------------------------------------|----------------|
D |----------2-------0-2-0-----------------------------|--2---------2---|
A |----5----------2-------------5------5----------5--5-|----5--5------5-|
E |-3-----3-----3------------3------3------2---5-------|-5--------5-----|

G |-----------------------------------|
D |----9-9---9--9--7-7--7----------2--|
A |--7-----7------5----5---3--2-------|
E |-----------------------------5-----|

Verso 3: (Ella en bienes raíces?)

G |-------------------------------------------------|-------------------|
D |----------2-------0-2-0--------------------------|--2--------2-------|
A |----5-----------2------------5-----5--------5--5-|----5--5------5--5-|
E |--3----3-----3------------3-----3-----2--5-------|-5--------5--------|

G |---------------------------------------|
D |---------------------------------------|
A |--7----7-----5--5--5-----3--2----------|
E |------7----7-----------5-------5----5--|

Coro:

G |---------------------------------------------------------------|
D |----------------------------------2----------------------------|
A |-----5----5--5------5----------5-----2----------------5--------|
E |--3-----3--------2---2---2--2------------5--3---2---5----5-----|


G |-----------------------------------------------------------|---------|
D |-----------------------------------2---------------------2-|---------|
A |----5-----5-5----------5-------5------2---------------5----|-----3-3-|
E |-3-----3---------2---2-----2-2-----------5--3--2----5------|-1-1-----|

Instrumental:

G |----------------------------------------------------------|
D |----------------------------------------------------------|
A |----5-----5--------5-----5---5--------2--3h5-----5----5---|
E |--3-----3---3---2-----2---------2--2-----------2----2-----|


G |-----------------------------------------------------------|---------|
D |------------------------------------------2----------------|-----3-3-|
A |---5----5-5----5-----5-5-----0---5--3--5-----5----5---5--5-|---0-----|
E |-3----3------2-----2-------2-------------------3-----------|-1-------|


Verso 4: (Esta historia se escribe?)

G |----------------------------------------------|----------------------|
D |--------2------0-2-0--------------------------|----2---------2-------|
A |---5---------2--------2---5------5-------5-5--|-------5-5-------5--5-|
E |-3----3---3------------3----3-3----2---5------|--5---------5---------|

G |--------------------------------------|
D |----9-9---9-9----7-7---7-----------2--|
A |--7-----7------5-----5-----3-2--------|
E |--------------------------------5-----|


Coro:

G |-------------------------------------------|
D |------------------2------------------------|
A |---5---5--------5---5----2--------5--5--5--|
E |-3---3-----2--5-------------5-3-2----------|

G |---------------------------------------------|--------------|----|
D |-----------------------2---------------------|----3p2-------|----|
A |---5---5---------5-5-----2----------5--5--5--|--3------3?3--|----|
E |-3---3-----2--5------------5--3--2-----------|--------------|--3-|

Instrumental-2:

G |----------------------------|--------------------------|
D |----------------------------|--------------------------|
A |-----3-5-3----5-5---x-3/5---|-----3-5-3----5-5--x-3/5--|
E |-1-5--------3------x--------|-1-5--------3-----x-------|

G |----------------------------|----------------------------|
D |----------------------------|----------------------------|
A |-----3-5-3----5-5--5-----5--|-----3-5-3----5-5---x?3/5---|
E |-1-5--------3---------3-3---|-1-5--------3------x--------|

G |----------------------------|----------------------------|
D |----------------------------|----------------------------|
A |-----3-5-3----5-5--5-----5--|-----3-5-3----5-5---x?3/5---|
E |-1-5--------3---------3-3---|-1-5--------3------x--------|

G |----------------------------|----------------------|
D |----------------------------|----------------------|
A |-----3-5-3----5-5---x-3/5---|-----3-3-----5---5----|
E |-1-5--------3------x--------|-1-5------x----5---5--|

Verso 5: (Si ella cediera un poco?)

G |----------------------------------------------|----------------------|
D |--------2------0-2-0--------------------------|----2---------2-------|
A |---5---------2--------2---5------5-------5-5--|-------5-5-------5--5-|
E |-3----3---3------------3----3-3----2---5------|--5---------5---------|

G |--------------------------------------|
D |----9-9---9-9----7-7---7-----------2--|
A |--7-----7------5-----5-----3-2--------|
E |--------------------------------5-----|


>
>
>
>


	Enviado por Roberto Castillo, Guayaquil-Ecuador.

Me parece que es bastante preciso pero puede tener errores, claro.
Si los encuentran envíenlos por favor a r_castillo_o@
Suggest correction
Give kudos to tab author, rate the tab!
1 2 3 4 5
comments
print report bad tab
guest
You may want to rate the tab now too:
select rating
Wanna post a correction for this tab? Suggest correction