Oops, an error
Loading. Please wait.

Palomita Blanca Tab

139 views 1 this week
no commentswrite comment
1 2 3 4 5
3 more votes to show rating
add to favorites
launch autoscroll
font size
0
reset
how to read this tab
guitar tuner
×
Best way to learn
"Palomita Blanca"
Autoscroll
slow
fast
+/-
esc
set tempo
stop
Punteo Inicial:
1---------10(x4)-9-9-10-9-7--5-10-9-7--5-7-9-9/10-9---------------
2-----2-3-------------------------------------------8-7-5-3-5-5/7-
3-2-4------------------------------------------------------------

Bm                           F#m                         G
Te dire:soy tan feliz cuando estoy cerca de ti,Que no me acostumbro
D                Em          A         Bm                        F#m
Si no escucho el verde de tu  lo ves,nada es igual,todo es frio
                     G      D              Em   A7    D
si no  Blanca,llevale en tus alas mi cancion.
CORO:
     D            A               Bm   Bm/A          G     D
     Dile que las noches no han callado.   De amor hablaron,
                 Em  A Em A  D           A                 Bm   Bm/A
     y no se han i   do.     Dile que la quiero y que la extraño.
                   G   D          Em    A7  D
     Que no he olvidado  y que he sufri i  ido.(Punteo Inicial)
               ( D  A  Bm  Bm/A  G  D  Em  A  Em  A )
      Bm                        F#m                           G    D
Ya lo se,cuento mi error,pero entiendo que el amor,todo lo perdona,
            Em   A              Bm                        F#m
y nunca se acaba,Corazon. Ya lo ves,nada es  es vano si no
               G      D                 Em   A7    D
 Blanca ,  llevale en tus alas mi cancion.  --CORO--
Punteo:
1-10-12-12/14--9-10-12-10-9-9/10-9-7--9-10-12-10-9-10-----
2---------------------------------------------------------

1---15--15-14-12----14--14-12-10--------------9-10-9---12/14-12-10--
2-15--15----------15--15-------------2-3-2--------------------------
3-----------------------------------0-----9-11------11--------------
4----------------------------------2--------------------------------

Bm               G    D                  A  F#/Bb Bm               G
Y una gaviota de luz, entre las olas del mar ,    va recogiendo el azul
D                 G#dim         Bbdim             D
que yo no te supe dar   Y una aurora con besos de tul.--CORO--
DEFINO ACORDES:  Bm/A= 5 X 4 2 3 2   F#/Bb= 6 X X 6 7 6
 G#dim=X X 6 7 7 7   Bbdim= X X 8 9 8 9
Suggest correction
Give kudos to tab author, rate the tab!
1 2 3 4 5
comments
print report bad tab
guest
You may want to rate the tab now too:
select rating
Wanna post a correction for this tab? Suggest correction