Oops, an error
Loading. Please wait.

Solo Tengo Ojos Para Ti Tab

version 1
version 1

Whole song

10,801 views 9 this week
2 commentsread comments
1 2 3 4 5
excellent!
x 2
add to favorites
launch autoscroll
font size
0
reset
how to read this tab
guitar tuner
Tab Pro tools
  • play this tab
  • loop segment
  • change instrument
  • show fretboard
  • metronome
Autoscroll
slow
fast
+/-
esc
set tempo
stop
Contributor
Difficulty
intermediate
Afinacion: standard con CAPO en 1er. traste

he transcrito el arpegio de la guitarra y mas abajo
estan los acordes con la letra..en realidad
no es tan dificil como parece...

INTRO:

   D              A/D
e|---------5------------5------|
B|-----7-----7------5-----5----|
G|-------7-----7------6-----6--|
D|--0-------------0------------|
A|-----------------------------|
E|-----------------------------|

    G/D                  Gm
e|-----------3-----------------3----------|
B|-----3-------3----------3-------3-------|
G|--------4-------4---------3--------3----|
D|--0------------------0------------------|
A|----------------------------------------|
E|----------------------------------------|
   D                E/D              Gm             A7
e|---------2----------------4--------------3-----------------3--------------|
B|-----3-----3----------5-----5--------3-----3---------2--------2-----------|
G|-------2-----2----------4-----4--------3-----3----------0--------0--------|
D|--0----------------0---------------0--------------------------------------|
A|--------------------------------------------------0-----------------------|
E|--------------------------------------------------------------------------|

ESTROFA:
    D                            A/D
e|---------5------------5----------------5---------------5------------------|
B|-----7-----7------7-----7---------5-------5--------5-----5----------------|
G|-------7-----7------7-----7----------6------6--------6------6-------------|
D|--0-------------0--------------0----------------0-------------------------|
A|--------------------------------------------------------------------------|
E|--------------------------------------------------------------------------|

    G                                    Gm
e|-----------3-----------------3-----------------3---------------3----------|
B|-----3-------3----------3-------3----------3-----3-------3--------3-------|
G|--------4-------4---------4--------4---------3-----3-------3--------3-----|
D|--0------------------0-----------------0---------------0------------------|
A|--------------------------------------------------------------------------|
E|--------------------------------------------------------------------------|

    D
e|---------2------------------2------------|
B|----3-------3----------3-------3---------|
G|-------2------2----------2--------2------|
D|--0----------------0---------------------|
A|-----------------------------------------|
E|-----------------------------------------|

   E/D                             G         D/F#     Em
e|--------4--------------4--------------------------------------------------|
B|----5------5-------5-----5-----------3-----------3---------0--------------|
G|------4------4-------4-----4-------4-----------2---------0---0------------|
D|-0--------------0---------------------------------------------------------|
A|--------------------------------------------------------------------------|
E|---------------------------------3-------3--2-------2-0-------------------|
     A7       D
e|-------------------0h2--0-----0h2-----|
B|---3----2--------3--------3-----------|
G|------0--------2------------2---------|
D|-----------0--------------------------|
A|---0----------------------------------|
E|--------------------------------------|

2da estrofa..


FINAL DE 2DA. ESTROFA:
     D                   A/Db
e|---2------0h2-----------0--------0-------------|
B|-----3---------3-----------2--------2----------|
G|--------2---------2-----------2--------2-------|
D|---0-------------------------------------------|
A|------------------------4----------------------|
E|-----------------------------------------------|


CORO:

        Bm7                     E7            Amaj7
e|----------------------------------------------------0---------------------|
B|--------------3---------------0------3-------2--------2-------------------|
G|---------2------2---------------2--------1-----4---------4----------------|
D|-----------0-------0--------------2--------------2------------------------|
A|------2--------------------------------------0----------------------------|
E|------------------------------0-------------------------------------------|


   F#m7               G        D/F#     Em        A7
e|---------0----------------------------------------------------------------|
B|--2---------2------------3--------3--------0----3-----2-------------------|
G|----2----------2-------4--------2--------0---0-----0----------------------|
D|-------2------------------------------------------------------------------|
A|------------------------------------------------0-------------------------|
E|--2------------------3------3-2-----2-0-----------------------------------|


     F#m7           Bm7              G       D/F#     Em          A7
e|---------0----------------0-----------------------------------------------|
B|---2-------2------3---------3----------3--------3-------------3-3----2----|
G|-----2-------2------2---------2------4--------2----------0--------0-------|
D|-------2---------------0-------------------------------0------------------|
A|------------------2---------------------------------------------0---------|
E|---2-------------------------------3-----3-2------2-0---------------------|

          G        D/F#     Em          A7
e|-----------------------------------------------------|
B|-------------3--------3-------------3-3-----2--------|
G-----------4--------2-----------0---------0-----------|
D|----------------------------0------------------------|
A|--------------------------------------0--------------|
E|--------3------3-2------2-0--------------------------|

   Em         D/F#     G         A7     D
e|---------------------------------------------0h2----------0h2-------------|
B|-------3---------3---3---------3---2-------3-----3-----3------------------|
G|-----0---------2-------0---0-----0-------2---------2----------------------|
D|-------------------------0------------0-----------------------------------|
A|-------------------------------0------------------------------------------|
E|--0-------0-2------2-3----------------------------------------------------|

estrofa..

INSTRUMENTAL:
  D
e|---------2------------------2------------|
B|----3-------3----------3-------3---------|
G|-------2------2----------2--------2------|
D|--0----------------0---------------------|
A|-----------------------------------------|
E|-----------------------------------------|


   E/D                             G         D/F#     Em           A7
e|--------4--------------4--------------------------------------------------|
B|----5------5-------5-----5-----------3-----------3---------0-----3---2----|
G|------4------4-------4-----4-------4-----------2---------0---0-----0------|
D|-0--------------0---------------------------------------------------------|
A|-----------------------------------------------------------------0--------|
E|---------------------------------3-------3--2-------2-0-------------------|

    D                   A/Db
e|---2------0h2-----------0--------0-------------|
B|-----3---------3-----------2--------2----------|
G|--------2---------2-----------2--------2-------|
D|---0-------------------------------------------|
A|------------------------4----------------------|
E|-----------------------------------------------|

coro...


FINAL:

    Em        D/F#     G         A7     D
e|---------------------------------------------0h2-------|
B|-------3---------3---3---------3---2-------3-----3-----|
G|-----0---------2-------0---0-----0-------2---------2---|
D|-------------------------0------------0----------------|
A|-------------------------------0-----------------------|
E|--0-------0-2------2-3---------------------------------|
  ....solo    tendre    ojos    para ti

   G          D/F#      Em
e|------------------------------------------|
B|-----3-----------3---------0--------------|
G|---4-----------2---------0---0------------|
D|------------------------------------------|
A|------------------------------------------|
E|-3-------3--2-------2-0-------------------|

    A7       D
e|-------------------0h2--0-------------|
B|---3----2--------3--------3-----------|
G|------0--------2------------2---------|
D|-----------0--------------------------|
A|---0----------------------------------|
E|--------------------------------------|

   G          D/F#      Em
e|------------------------------------------|
B|-----3-----------3---------0--------------|
G|---4-----------2---------0---0------------|
D|------------------------------------------|
A|------------------------------------------|
E|-3-------3--2-------2-0-------------------|

     A7      D                    Bb            Am7             D
e|-------------------0h2--0--------------1---------------3------2----|
B|---3----2--------3--------3----------3---3-----------1---1----3----|
G|------0--------2------------2------3-------3-------0-------0--2----|
D|-----------0--------------------------------------------------0----|
A|---0-----------------------------1--------------0------------------|
E|-------------------------------------------------------------------|


Acordes:
 D:   xx0232
A/D:  xx0556
G/D:  xx0433
Gm:   xx0333
E/D:  xx0454
G:    320033
D/F#: 200232
Em:   022000
A7:   x02020
A/Db: x4x220
Bm7:  x24232
E7:   022130
Amaj7:x03230
F#m7: 242222
Bb:   x1333x
Am7:  x02013

D  A/D  G/D  Gm   D    D/E  Gm  A7

(estrofa)
D                       A/D
   Sólo tengo ojos para tí
           G/D                Gm
no te das cuenta, no lo has notado
D                           E/D
  Y te quiero más de lo que hoy puedo decir
G        D/F#   Em A7      D
   Sólo tengo ojos    para tí

D                            A/D
   Sólo busco el tiempo para tí
        G/D               Gm
vaya manía de estar a tu lado
D                         E/D
  y lo eterno cabe, en tu minuto enamorado y yo
G       D/F#    Em  A7     D   A/Db
   Sólo tengo ojos    para tí

(coro)

    Bm7       E7              Amaj7
Te veré como siempre en el rincón
 Fm7                     G  D/F# Em     A7         Fm7  Bm7
    donde guardo el corazón       y tan sólo vives tú
G             D/F#             Em   A7
  y aunque el mar pierda una orilla
G          D/F#       Em   A7
  y el comienzo su partida
Em       D/F#    G  A7     D
   sólo tendré ojos   para tí.


D                       A/D
   Sólo tengo ojos para tí
           G/D                Gm
no te das cuenta, no lo has notado
D                           E/D
  Y te quiero más de lo que hoy puedo decir y yo
G        D/F#   Em A7      D
   Sólo tengo ojos    para tí

(instrumental)
D   E/D  G   D/F#   Em   A7   D    A/Db

   Bm7       E7              Amaj7
Te veré como siempre en el rincón
 Fm7                     G  D/F# Em        A7      Fm7 Bm7
    donde guardo el corazón       y tan sólo vives tú
G             D/F#             Em   A7
  y aunque el mar pierda una orilla
G          D/F#       Em   A7
  y el comienzo su partida
Em       D/F#    G  A7     D
   sólo tendré ojos   para tí.
G        D/F#    Em                A7         D
                     Sólo  tengo  ojos   para tí.
G   D/F#  Em            A7        Bb  Am7   D
            solo tengo ojos para ti
comments
We did not receive enough feedback on this tab! Please rate:
print report bad tab
1 2 3 4 5
2 comments total.
+1 reply
0oJMPo0 wrote on February 1 2009, 09:40 pm

Cool!!
Juan Luis Guerra Rockss!!

0 reply
Oscar57 wrote on July 22 2009, 07:02 pm

Uhmm la ultima parte, la toco y termino mas rapido que en la cancion original, quisiera saber si hay un error de transcripcion o hay que bajar el tiempo en el que toco la cancion al final ... muchas gracias por subir la tab

I want to post or [tab]
guest
You may want to rate the tab now too:
select rating
Please do not post tabs as comments. Select "correction" instead!