Oops, an error
Loading. Please wait.

Mi Guitarra Tab

76 views 1 this week
no commentswrite comment
1 2 3 4 5
3 more votes to show rating
add to favorites
launch autoscroll
font size
0
reset
how to read this tab
guitar tuner
Autoscroll
slow
fast
+/-
esc
set tempo
stop
Help us to improve Ultimate-Guitar.com Take our survey!
×
Solo de guitarra de la canción "Mi guitarra" de Juan Pardo

Espero que sirva para complementar la canción que ya está publicada.

Transportador en el segundo traste

  A                   D                E                C#m       E

|---------|---------|---------|------|---------|-------|---------|-------
|---------|---------|---------|------|---------|-------|-2-------|-------
|---------|-------2-|-4-1-----|------|-4-1-----|-------|---2-----|-------
|---------|---2-4---|-----2-1-|-0----|-----2-0-|---0---|-----2---|-0-2---
|-----0-2-|-4-------|---------|------|---------|-2-----|-------4-|-------
|-0-2-----|---------|---------|------|---------|-------|---------|-------


  A                   D                E                F#        A

|---------|---------|---------|------|---------|-------|---------|----- 9--
|---------|---------|---------|------|---------|-------|-----2---|-- 10----
|---------|-------2-|-4-1-----|------|-4-1-----|-------|---3-----|-9-------
|---------|---2-4---|-----2-1-|-0----|-----2-0-|---0---|-4-------|---------
|-----0-2-|-4-------|---------|------|---------|-2-----|---------|---------
|-0-2-----|---------|---------|------|---------|-------|---------|---------
Suggest correction
Give kudos to tab author, rate the tab!
1 2 3 4 5
comments
print report bad tab
guest
You may want to rate the tab now too:
select rating
Wanna post a correction for this tab? Suggest correction