Oops, an error
Loading. Please wait.

Al Doblar La Esquina Tab

40 views 1 this week
no commentswrite comment
1 2 3 4 5
3 more votes to show rating
add to favorites
×
Save as Personal and add changes to this tab that will be seen only by you. Learn more ›
×
You can save this tab as Personal to edit and correct it or add notes. All changes will be seen only by you. Learn more »
save as personal
new!
launch autoscroll
font size
0
reset
how to read this tab
guitar tuner
Autoscroll
slow
fast
+/-
esc
set tempo
stop
HOLA A TODOS ESPERO Y ESTEN CONTENTOS POR ESTE AÑO QUE VIENE
ASI QUE VAYAMOS A LAS CANCIONES NUEVAS QUE NOS PREPARAN ESTE AÑO
ESTA ROLA ES ALGO CONMOVEDORA, ES ESPECIALMENTE PARA UN AMIGO 
MIO
ESTA CANCION LLEVA CAPO EN EL PRIMER TRASTE 

INTRO:  Dm Gm* A7 (SOLO BAJEOS) 

e----0-1-3-0-0-1-3-0-0-1-3-1P3---------
b--3---------------------------3-2-----  X3
g--------------------------------------

              Gm*   A7             Dm
Yo DOble LA esquina      y vi tu figura
e----0-1-3-0-0-1-3-0-0-1-3-1P3---------
b--3---------------------------3-2-----
g--------------------------------------
             Gm*   A7              Dm      C7
todo era tristeza     todo era amargura

e----0-1-3-0-0-1-3-0-0-1-3-1P3---------
b--3---------------------------3-2-----
g--------------------------------------
               F    A7          Dm
nunca habia sentido    tan desesperanza 
e----0-1-3-0-0-1-3-0-0-1-3-1P3---------
b--3---------------------------3-2-----
g--------------------------------------
          Gm*    A7               Dm
este sufrimiento    no ceja y me cansa
e----0-1-3-0-0-1-3-0-0-1-3-1P3---------
b--3---------------------------3-2-----
g--------------------------------------
               Gm*   A7                Dm
que sopor tan grande    que grande tristeza
e----0-1-3-0-0-1-3-0-0-1-3-1P3---------
b--3---------------------------3-2-----
g--------------------------------------
               Gm*  A7                Dm     C7
veo tus lindos ojos    pienso en tu belleza
               F   A7               Dm
tengo el alma gris    y está tan dolida 
           Gm*   A7           Dm
tenia que llegar    esta despedida 
e----0-1-3-0-0-1-3-0-0-1-3-1P3---------
b--3---------------------------3-2-----
g--------------------------------------
            Gm*  A7          Dm
yo te digo adios    ojalá no falle
e----0-1-3-0-0-1-3-0-0-1-3-1P3---------
b--3---------------------------3-2-----
g--------------------------------------
              Gm*   A7                Dm  C7
temo que no aguante    al cruzar la calle 
                F   A7                  Dm
nunca habia sentido    tan fuerte una espina
                Gm*   A7                Dm
ya la estoy sintiendo    ya doble la esquina 

GUITARRA 1: Gm9 A7  Dm

GUITARRA 2:

SOLO e----6-6-6---4--2-----------
     b--6------------------------
 
e----0-1-3-0-0-1-3-0-0-1-3-1P3---------
b--3---------------------------3-2-----
g--------------------------------------
               Gm*   A7                Dm                  Gm*   A7
Que sopor tan grande    que grande tristeza ver tus lindos ojos 
               Dm   C7                 F  A7               Dm
penso en tu belleza    tengo el alma gris    y está tan dolida 
             Gm* A7           Dm
tenia que llegar    esta despedida 
             Gm* A7          Dm                Gm*   A7
yo te digo adios   ojalá no falle temo que o aguante
              Dm   C7                F    A7                 Dm
al cruzar la calle    nunca habia sentido   tan fuerte una espina
               Gm*    A7                  Dm   A#   A7 Dm
ya la estoy sintiendo     ya doble la esquina 

            E A D G B E

Gm*         3 X 0 3 3 0
Dm          X 0 0 2 3 1
A7          0 0 2 0 2 0
C7          0 3 2 3 1 0
F           1 3 3 2 1 1 
A#M         1 1 3 3 3 1
Gm9         3 5 3 3 3 5

ESPERO LES GUSTE Y UNA COSA EL PUNTEO ES ALGO RÁPIDO 
CON CALMA Y LES SALDRA MUY BIEN, SI TIENEN DUDAS O COMENTARIOS
POR FAVOR DIGANME A alfa_omega22@ GRACIAS Y BYE

SALUDOS A ANA ES UNA MUJER REALMENTE DIVINA Y HERMOSA.
Suggest correction
Give kudos to tab author, rate the tab!
1 2 3 4 5
comments
print report bad tab
guest
Wanna post a correction for this tab? Suggest correction