Oops, an error
Loading. Please wait.

Cactus Tab

267 views 3 this week
no commentswrite comment
1 2 3 4 5
3 more votes to show rating
add to favorites
launch autoscroll
font size
0
reset
how to read this tab
guitar tuner
×
Best way to learn
"Cactus"
Autoscroll
slow
fast
+/-
esc
set tempo
stop
CACTUS
Aquí les dejo este tab y los acordes de cactus ,
el tab es el intro y parte del intermedio

(Intro)
1/--------------------0--------
2/---1-1--1-0-1-3-3----3---0-/1
3/--2-2-2--2------2-2----2----- (creo que son
4/2----------------------------   6 veces)
5/-----------------------------
6/-----------------------------
 (se sigue tocando el intro cuando
   entra la primera guitarra)
/-----------------------------------------------------------------/
/-----------------------------------------------------------------/
/----------5-7--7-5--------5---5---------------5-7-7-5-7-9s-9-9s-7/
/--7---7-9---------9-7--7-9-9-9-9-7-7-5-7---7-9-------------------/
/-----------------------------------------------------------------/
/-----------------------------------------------------------------/

/-----------------------------------------------------/
/-----------------------------------------------------/
/-7-7-5-4-5---5-7-9-7-9-10v-10v-9-7-9s-5-7-9-9s-7s-5-5/
/-----------------------------------------------------/
/-----------------------------------------------------/
/-----------------------------------------------------/

(el requinto sigue variando en esas 2 cuerdas
3ra y 4ta esta muy sencillo alta un poco de requinto pero
ustedes lo encontraran muy fácil solo les dejo un empujoncito ,
este tab. es de la versión de Internet la pueden descargar por
ares es la primera maqueta de cactus, la versión del disco no
cambia mucho solo el efecto de la guitarra y unos pequeños arreglos)

Acordes
LAm, RE 9ªm, LAm, SOL


Parte antes del estribillo igual.


DO, SIb, REm, LAm


FA, SOL,   LAm
Suggest correction
Give kudos to tab author, rate the tab!
1 2 3 4 5
comments
print report bad tab
guest
You may want to rate the tab now too:
select rating
Wanna post a correction for this tab? Suggest correction