Oops, an error
Loading. Please wait.

Goodbye Tab

version 1
version 1

Whole song

9,735 views 9 this week
no commentswrite comment
1 2 3 4 5
accurate
x 4
add to favorites
launch autoscroll
font size
0
reset
how to read this tab
guitar tuner
Tab Pro tools
  • play this tab
  • loop segment
  • change instrument
  • show fretboard
  • metronome
×
Best way to learn
"Goodbye"
Autoscroll
slow
fast
+/-
esc
set tempo
stop
Contributor
Goodbye
by Juana

tabbed by: Antonin Deala
email: antonindeala@yahoo.com

Intro:

    GM7*       F#m7*    D9/B (2x)
e|-----------------------------|
B|--------12--------10---3-----|
G|-----11-11------9--9---2-----|  (2x)
D|---12---12----11--11---0-----|
A|-10----------9---------2-----|
E|-----------------------------|

Use these chords:

   GM7   F#m7
e|--2--|--2--|
B|--3--|--2--|
G|--4--|--2--|
D|--5--|--2--|
A|-----|--4--|
E|-----|--2--|

Verse 1:

GM7
Didn't mean to hurt you badly
F#m7            D9/B
Don't think that I am fooling around with you
GM7
So sorry for the time you've wasted on me
F#m7		D9/B
So sorry for the things that you went through
GM7
But I know that the problem's within me
F#m7          D9/B
You're so nice but your love don't deserve me
GM7				       F#m7       D9/B(2x)
Or maybe I'm just so scared to fall in love again

Verse 2:

GM7			      F#m7	  D9/B
I can still remember the days many times, I've been hurt
GM7
So much stress I thought in our relationship
F#m7		 D9/B(2x)
So much suffering ---- and the pain still remains
GM7
You know I like you but I don't wanna take the risk
F#m7		D9/B
So confusing I don't know how to deal with it
GM7                                F#m7          D9/B(2x)
Need sometime for a while before I give my heart away

Chorus:

GM7
Don't say goodbye
	      F#m7 D9/B(2x)
Don't say goodbye
GM7                                        F#m7   D9/B(2x)
Need sometime for a while before I give my heart away

GM7
Don't say goodbye
	      F#m7 D9/B(2x)
Don't say goodbye
GM7                                F#m7          D9/B(2x)
Need sometime for a while before I give my heart away

Verse 3:

GM7
Now I know I wasn't thinking before
F#m7		       D9/B
That's why I'm always ending up with Mr. Wrong
GM7
Learning from the past don't wanna make a mistake
F#m7		    D9/B
You could be Mr. Right or could be fake
GM7
You know I like you but I don't wanna take the risk
F#m7		D9/B
So confusing I don't know how to deal with it
GM7                                F#m7          D9/B(2x)
Need sometime for a while before I give my heart away

Chours:

GM7
Don't say goodbye
	      F#m7 D9/B(2x)
Don't say goodbye
GM7                                        F#m7   D9/B(2x)
Need sometime for a while before I give my heart away

GM7
Don't say goodbye
	      F#m7 D9/B(2x)
Don't say goodbye
GM7                                F#m7          D9/B(2x)
Need sometime for a while before I give my heart away

Adlib: Em-A(4x)

e|--------7-9-10-9------------------7-9-9/10-9-10/12-10-13/14-12-10/12-10/12-----|
B|-------7--------5/7---7----------7---------------------------------------------|
G|-------------------7h9-9-9-----------------------------------------------------|
D|-------------------------------------------------------------------------------|
A|-0-------------------------0---------------------------------------------------|
E|--3-2-0---------------------3-2-0----------------------------------------------|

e|--------7-9-10-9-------------------7-9-9/10-9---------------------------9-9-9-10-10-10-12-15--|
B|-------7--------7---7-------------7----------7---8-8-8-10-10-10-12-12-12----------------------|
G|-----------------7h9-9-8/9-9------------------7h9---------------------------------------------|
D|----------------------------------------------------------------------------------------------|
A|-0--------------------------0-----------------------------------------------------------------|
E|--3-2-0----------------------3-2-0------------------------------------------------------------|

on the last A of the adlib:
(bass)
G|---------------------|
D|---------------2-4-5-|
A|----2-2-4-4-5-5------|
E|-5-5-----------------|

Chorus

Outro: GM7 F#m7 D9/B(2x)
       GM7 F#m7 D9/B(2x)

Hi kay Melissa Sarmiento! Ang ganda mo talaga! :)
comments
print report bad tab
I want to post or [tab]
guest
You may want to rate the tab now too:
select rating
Please do not post tabs as comments. Select "correction" instead!