Oops, an error
Loading. Please wait.

Ikaw Pa Rin tab

version 2
version 2

Whole song

by Juana
19,115 views 9 this week
4 commentsread comments
1 2 3 4 5
x 9
add to favorites
×
Save as Personal and add changes to this tab that will be seen only by you. Learn more ›
×
You can save this tab as Personal to edit and correct it or add notes. All changes will be seen only by you. Learn more »
launch autoscroll
font size
0
reset
how to read this tab
guitar tuner
edit
Autoscroll
slow
fast
+/-
esc
set tempo
stop
Author
Tittle: Ikaw pa rin
Band: Juana

Tabbed by : Yehey!

>>>Hellooo poh!..i dedicate this one for JAYCEL! of guiguinto,Bulacan..sana magustuhan moh!

Intro:

e|---------------------------------------------------------------------|
B|--4h5-5-T-5-4-T-4-4h5-5-T-5-4-T-4-4h5-5-T-5-4-T-4-4h5-5-T-7-5-T-5----|
G|--4---4-A-4-4-A-4-4---4-A-4-4-A-4-4---4-A-4-4-A-4-4---4-A-4-4-A-4----|
D|--------P-----P---------P-----P---------P-----P---------P-----P------|
A|--7-------7-----7-4-------4-----4-------------------------------5----|
E|----------------------------------4-------4-----4-5-------5-5--------|

e|---------------------------------------------------5--4--2-------|
B|--4h5-5-T-5-4-T-4-4h5-5-T-5-4-T-4-4h5-5-T-5-4-T-4-----------5--4-|
G|--4---4-A-4-4-A-4-4---4-A-4-4-A-4-4---4-A-4-4-A-4----------------|
D|--------P-----P---------P-----P---------P-----P------------------|
A|--7-------7-----7-4-------4-----4-----------------0--0--0--0--0--|
E|----------------------------------4-------4-----4----------------|
NOTE: If the sound doesn't fit, try to adjust the tuning of your guitar a little bit
than normal...also, listen to the song for exact timming and strumming....

Verse1: (same as intro)
Refrain:(W/distortion)

     B       A              B       A
e|-2-2-2---0-0-0----     --x-x-x---x-x-x---------------------------------||\
B|-4-4-4---2-2-2----     --x-x-x---x-x-x-------------------------------|\||\ \
G|-4-4-4---2-2-2----     --8-8-8---x-x-x-------------------------------|\||\  \(You can use power chords)
D|-4-4-4---2-2-2----     --9-9-9---6-6-6---|  /  (it sound's good also---||\
A|-2-2-2---0-0-0----     --9-9-9---7-7-7-------------------------------|\||\ /
E|-2-2-2------------(2x) --7-7-7---5-5-5-------------------------------|\||\(2x) Fade then break

Chorus: (W/distortion)
     E       B       A       B       A       B
e|-0-0-0---2-2-2---0-0-0---2-2-2---0-0-0---2-2-2------------|\
B|-0-0-0---4-4-4---2-2-2---4-4-4---2-2-2---4-4-4----------|\|\ \
G|-1-1-1---4-4-4---2-2-2---4-4-4---2-2-2---4-4-4----------|\|\  \You can use power
D|-1-1-1---4-4-4---2-2-2---4-4-4---2-2-2---4-4-4----------|\|\  /chords
A|-2-2-2---2-2-2---0-0-0---2-2-2---0-0-0---2-2-2----------|\|\ /
E|---------2-2-2-----------2-2-2-----------2-2-2----------|\|\(2x)

Intro?: E-B-G#m-A(bagsak lang)
Verse2:

e|------------------------------------------------------------------|
B|------------------------------------------------------------------|
G|-7h9h7h9h7h9h7h9--------------------------------------------------|
D|-----------------9h11h9h11h9h11h9----------------7h9h7h9h7h9h7h9--|
A|----------------------------------7h9h7h9h7h9h7h9-----------------|
E|------------------------------------------------------------------|(2x)
NOTE: I think this one is not accurate but you can try it, you also do the
if the sound's not good, you can always use chords(E-B-A-A)(2x)

(REpeat Refrain)
(Repeat Chorus)

Solo:(E-B-A-B)(2x)

e|---------------------------------------------------------------------------------------------------------------------------------------|
B|-11/12-10-9-10/-9----------11/12-10-9-10/-9---------------------------------------9--9-10-12--^9h10h12--10h12h14--12h14h15--14h15h17^--|
G|------------------11-9-11/------------------11-9---------------------------9--9-11-11--------------------------------------------------|
D|-------------------------------------------------11/--11\-14\-16\-18\--9h11-11---------------------------------------------------------|
A|---------------------------------------------------------------------------------------------------------------------------------------|
E|---------------------------------------------------------------------------------------------------------------------------------------|

e|-19-17h16h17-16--14-12-14/---19-17h16h17-16--14-16----------12-14-14/16---^19h17h16h17^--14--12--14/---12/\/--|
B|---------------------------------------------------14/--14----------------------------------------------------|
G|--------------------------------------------------------------------------------------------------------------|
D|--------------------------------------------------------------------------------------------------------------|
A|--------------------------------------------------------------------------------------------------------------|
E|--------------------------------------------------------------------------------------------------------------|
(NoTE:play it really fast(^^), this one is tricky and I think I don't get it
anyway I change a little bit working on this one, the part of "10h12h14"...I think it's higher than
normal but still you can work on this one..right?..just listen to the song..I also done 
so that you guys can easilly reach the "19" on e-String).

Verse3:

e|---------------------------------------------------------------------|
B|--4h5-5-T-5-4-T-4-4h5-5-T-5-4-T-4-4h5-5-T-5-4-T-4-4h5-5-T-7-5-T-5----|
G|--4---4-A-4-4-A-4-4---4-A-4-4-A-4-4---4-A-4-4-A-4-4---4-A-4-4-A-4----|
D|--------P-----P---------P-----P---------P-----P---------P-----P------|
A|--7-------7-----7-4-------4-----4-------------------------------5----|
E|----------------------------------4-------4-----4-5-------5-5--------|

e|--------------------------------------------------------------|
B|--4h5-5-T-5-4-T-4-4h5-5-T-5-4-T-4-4h5-5-T-5-4-T-4-4h5-5-T-5---|
G|--4---4-A-4-4-A-4-4---4-A-4-4-A-4-4---4-A-4-4-A-4-4---4-A-4---|
D|--------P-----P---------P-----P---------P-----P---------P-----|
A|--7-------7-----7-4-------4-----4-----------------------------|
E|----------------------------------4-------4-----4-5-------5---|

(Repeat Chorus)

Outro:(E-B-A-B)(2x) end w/(E)
(END)

Ikaw pa rin

(Verse):
Nang matapos na’ng mga araw na ika’y sa aking piling iniibig ka pa rin
Nang maglaho na ang sikat ng buwan at araw sa tuwing magdamag ikaw pa rin

(Refrain):
Bakit nga ba ‘tong pusong nasugatan
Tila   nais paring maramdaman tamis ng yakap mo’t halik

(Chorus):
Naaalala mo pa ba nung tayo’y magkasama pa
Iyong sinabi’t pinangako na nalimot mo na siya
At kahit naglaho ka na muling sumama sa kanya
Sa aking puso ay ikaw pa rin, ikaw pa rin

(Verse):
Tuwing paggising sa umaga ang iyong mukha ang nais halikan at sambahin
Sa maghapon ay iniisip ka lamang at ang mga nakaraan na kay saya

(Refrain):
Bakit nga ba iyong puso’y sinugatan
Habang pagsisisi ay hindi na kailanman mawawala

(Chorus):
Naaalala mo pa ba nung tayo’y magkasama pa
Iyong sinabi’t pinangako na tayo’y may pag-asa
Ngayon kahit siya ay akin sa kaniyang yakap at lambing
Ninanais ay ikaw pa rin, ikaw pa rin.

(Verse1)
(Chorus)
(Outro):
Ikaw pa rin 4x

>>>>>>>There you go!, I've tried my best to work on this one..Hope you like it..


For any comments or suggestion ou can email me at (darkseed_jecht@yahoo.com/
you can also txt at 09065126849 (globe lang poh ha..hehe!)

            
            
Suggest correction
Creating personal tab
Creating personal tab
You can edit any tab online and save it as your Personal.

You can edit, replace or remove any tab part or add personal notes – all changes will be seen only by you.

Personal tabs can be accessed anytime from any device, even offline.
Learn more »
comments
print report bad tab
4 comments total. Showing first comments.
0 reply
popo65 10 Aug 18, 2006 09:50 PM

ung ibang part mdyo mali pero pwede na. :D

0 reply
SayDie123 10 Jan 01, 2007 03:55 AM

thanks sa solo tabs! :D hehehe ^^ *5

0 reply
frisked_artemis 10 May 29, 2007 04:49 PM

medyo mahirap abutin ung ibang parts pewoh,ok,sakto pag iniplay.ala ba pwdeng pang-sub sa ibang parts?geh

guest
You may want to rate the tab now too:
select rating
Wanna post a correction for this tab? Suggest correction