Oops, an error
Loading. Please wait.

Ikaw Pa Rin Tab

version 3
version 3

Whole song

7,186 views 13 this week
2 commentsread comments
1 2 3 4 5
excellent!
x 3
add to favorites
launch autoscroll
font size
0
reset
how to read this tab
guitar tuner
Tab Pro tools
  • play this tab
  • loop segment
  • change instrument
  • show fretboard
  • metronome
×
Best way to learn
"Ikaw Pa Rin"
Autoscroll
slow
fast
+/-
esc
set tempo
stop
Contributor
Difficulty
novice
 Title: Ikaw Pa Rin
 Artist: Juana
 Album: Misbehavior
 Transcribed by: Allan John G. Amisola
 E-mail add: kogure_18spider@yahoo.com
 Date/Time: Saturday, September 23, 2006 - 12:26am

       Ang ganda ng song n to lalung lalo n ung acoustic part, kya ginawan q xa ng tab…
            Para ‘to sa Baby Odessa ko!!! C”,) I Luv u So mch
                Hope u guyz like it!

  [Standard Tuning]
  [Intro] Acoustic Guitar

 e|-------------x-------------x-------------x------------------|
 B|---4h5-5-5-4-T-4-4h5-5-5-4-T-4-4h5-5-5-4-T-4-4h5-5-7-5--4---|
 G|-------------A-------------A-------------A------------------|
 D|---2---2-2-2-P-2-----------P-------------P------------------|
 A|-------------x---4---4-4-4-x-4-----------x---0---0-0-0--0---|
 E|-------------x-------------x---4---4-4-4-x-4----------------|

 e|-------------x-------------x-------------x-----------------------|
 B|---4h5-5-5-4-T-4-4h5-5-5-4-T-4-4h5-5-5-4-T-4---10--9--7--5--4----|
 G|-------------A-------------A-------------A-----------------------|
 D|---2---2-2-2-P-2-----------P-------------P-----------------------|
 A|-------------x---4---4-4-4-x-4-----------x----0---0--0--0--0-----|
 E|-------------x-------------x---4---4-4-4-x-4---------------------|

  [Verse 1]

 e|-------------x-------------x-------------x------------------|
 B|---4h5-5-5-4-T-4-4h5-5-5-4-T-4-4h5-5-5-4-T-4-4h5-5-7-5--4---|
 G|-------------A-------------A-------------A------------------|
 D|---2---2-2-2-P-2-----------P-------------P------------------|
 A|-------------x---4---4-4-4-x-4-----------x---0---0-0-0--0---|
 E|-------------x-------------x---4---4-4-4-x-4----------------|
        Nang matapos na ang mga araw na ika’y sa aking piling...

      [Saka papasok ung bass, paisa-isa]
 e|-------------x-------------x-------------x-----------------------|
 B|---4h5-5-5-4-T-4-4h5-5-5-4-T-4-4h5-5-5-4-T-4---10--9--7--5--4----|
 G|-------------A-------------A-------------A-----------------------|
 D|---2---2-2-2-P-2-----------P-------------P-----------------------|
 A|-------------x---4---4-4-4-x-4-----------x----0---0--0--0--0-----|
 E|-------------x-------------x---4---4-4-4-x-4---------------------|
        Nang maglaho na ang sikat ng buwan at araw...

      [Guitar with distortion, tig isang bagsak]
       B5     A5     B5     A5
 e|---------------------------------------|
 B|---------------------------------------|
 G|---------------------------------------|
 D|----9~-----7~-----9~-----7~x-----------|
 A|----9~-----7~-----9~-----7~x-----------|
 E|----7~-----5~-----7~-----5~x-----------|
        Bakit nga ba ang pusong nasugatan t’wina...


  [Chorus] w/ distortion

       E5     C#5    G#5    A5
 e|--------------------------------------------|
 B|--------------------------------------------|
 G|----9>-----8>-------------------------------|
 D|----9>-----9>-----7>-----9>---7x7x7>--------|
 A|----7>-----6>-----7>-----9>---7x7x7>--------|
 E|------------------5>-----7>---5x5x5>--------|
        Naaalala mo pa ba, nung tayo’y magkasama pa...

       E5     C#5    G#5    A5
 e|--------------------------------------------|
 B|--------------------------------------------|
 G|----9>-----8>-------------------------------|
 D|----9>-----9>-----7>-----99>---7x7x7>-------|
 A|----7>-----6>-----7>-----99>---7x7x7>-------|
 E|------------------5>-----77>---5x5x5>-------|
         Kahit na naglaho ka na, muling sumama sa kanya..
            Sa’king puso ay ikaw pa rin, ikaw pa rin. [tapos]

 e|---------------------------------------|
 B|---------------------------------------|
 G|----9~-----6~--------------------------|
 D|----9~-----6~-----6~-----7~------------|
 A|----7~-----4~-----6~-----7~------------|
 E|------------------4~-----5~------------|


  [Verse 2] Palm-mute lahat (mdyo malabo 2ng part nto)

     E                       C#m                     G#m              A
 e|---------------------------------------------------------------------------------------------|
 B|---------------------------------------------------------------------------------------------|
 G|----------2h3-2h4---------4p2-1h2---------2h3-2h4---------4p2-1h2--6p4-6p4-4p2-2p1-----------|2x
 D|--2h4-2h4---------4p2-4p2---------2h4-2h4---------4p2-4p2--------------------------5p4-5p3---|
 A|---------------------------------------------------------------------------------------------|
 E|---------------------------------------------------------------------------------------------|
      T’wing pag-gising sa umaga ang iyong mukha...

      [Guitar with distortion, tig isang bagsak]

       B5     A5     B5     A5
 e|---------------------------------------|
 B|---------------------------------------|
 G|---------------------------------------|
 D|----9~-----7~-----9~-----7~x-----------|
 A|----9~-----7~-----9~-----7~x-----------|
 E|----7~-----5~-----7~-----5~x-----------|
        Bakit nga ba iyong puso’y sinugatan habang...


  [Chorus] w/ distortion

       E5     C#5    G#5    A5
 e|--------------------------------------------|
 B|--------------------------------------------|
 G|----9>-----8>-------------------------------|
 D|----9>-----9>-----7>-----9>---7x7x7>--------|
 A|----7>-----6>-----7>-----9>---7x7x7>--------|
 E|------------------5>-----7>---5x5x5>--------|
        Naaalala mo pa ba, nung tayo’y magkasama pa...

       E5     C#5    G#5    A5
 e|--------------------------------------------|
 B|--------------------------------------------|
 G|----9>-----8>-------------------------------|
 D|----9>-----9>-----7>-----99>---7x7x7>-------|
 A|----7>-----6>-----7>-----99>---7x7x7>-------|
 E|------------------5>-----77>---5x5x5>-------|
         Ngayon kahit siya’y...
            Tila nais ay ikaw pa rin, ikaw pa rin. [tapos]

  [Solo/Adlib] ---wala pa ehh try q ziprahin nxt tym
comments
We did not receive enough feedback on this tab! Please rate:
print report bad tab
1 2 3 4 5
2 comments total.
0 reply
_loyalista_ wrote on October 12 2007, 07:47 am

4 stars

0 reply
bandemonium wrote on October 29 2007, 01:23 pm

ok to

I want to post or [tab]
guest
You may want to rate the tab now too:
select rating
Please do not post tabs as comments. Select "correction" instead!