Oops, an error
Loading. Please wait.

Al Filo De La Noche Chords

5 views 1 this week
no commentswrite comment
1 2 3 4 5
2 more votes to show rating
add to favorites
launch autoscroll
font size
0
reset
transpose
0
reset
display chords
guitar tuner
Autoscroll
slow
fast
+/-
esc
set tempo
stop
Help us to improve Ultimate-Guitar.com Take our survey!
×
Interprete:JUANA LA LOCA
Título: AL FILO DE LA NOCHE
Album: VERMOUTH
Transcripción: Marcelo Villar (Río Cuarto, Córdoba)

ACORDES:   C   032010
           D   000232
           Bm  224432
           Em  022000
           Am  002210
           G   320003

INTRODUCCIÓN:     

    C     D     Bm    Em       C     D     Bm    Em  Am      D
1|---------------------------------------------5-3-------------
2|--5-5-5-3-3-3-5-3------------5-5-5-3-3-3-5-3-----------------
3|------------------4--------------------------------4-3-3-4-5-
4|--------------------5-5-7-5----------------------------------
5|-------------------------------------------------------------
6|-------------------------------------------------------------

C    D         Bm            Em
Esperando que vuelvas hacia mi 
C       D               Bm    Em
Esa es la verdad para que finjir
Am                 D
Esperandote

INTRODUCCIÓN

C     D          Bm          Em
Me dijiste que ciego es el amor
C      D        Bm          Em
Y arrojaste mis ojos en el sol
Am           D
Ojos que no ven

G           D             Am   D
Aaaahhhh, acariciando el filo de la noche
G           D             Am   D
Aaaaahhh, acariciando el filo de la noche


INTRODUCCIÓN
C        D              Bm     Em
Siempre te llevas lo mejor de mí
C         D              Bm     Em
Luces de hospital y de pronto fuí
 Am         D
Libre otra vez

G           D             Am   D
Aaaahhhh, acariciando el filo de la noche
G           D             Am   D
Aaaaahhh, acariciando el filo de la noche


    C     D     Bm    Em       C     D     Bm    Em  Am      D
1|---------------------------------------------5-3-------------
2|--5-5-5-3-3-3-5-3------------5-5-5-3-3-3-5-3-----------------
3|------------------4--------------------------------4-3-3-4-5-
4|--------------------5-5-7-5----------------------------------
5|-------------------------------------------------------------
6|-------------------------------------------------------------

G           D             Am   D
Aaaahhhh, acariciando el filo de la noche
G           D             Am   D
Aaaaahhh, acariciando el filo de la noche
G           D             Am   D
Aaaahhhh, acariciando el filo de la noche
G           D             Am   D
Aaaaahhh, acariciando el filo de la noche
G           D             Am   D
Aaaahhhh, acariciando el filo de la noche
G           D             Am  D
Aaaaahhh, acariciando el filo ésta noche
Suggest correction
Give kudos to tab author, rate the tab!
1 2 3 4 5
comments
print report bad tab
guest
You may want to rate the tab now too:
select rating
Wanna post a correction for this tab? Suggest correction