Oops, an error
Loading. Please wait.

Estrella Encendida Chords

version 1
version 1

Whole song

5 views 1 this week
no commentswrite comment
1 2 3 4 5
3 more votes to show rating
add to favorites
launch autoscroll
font size
0
reset
transpose
0
reset
display chords
guitar tuner
Autoscroll
slow
fast
+/-
esc
set tempo
stop
Help us to improve Ultimate-Guitar.com Take our survey!
×
G           C              D*
Ella es una estrella encendida
G           C              D**
Nunca puedo ver lo que hay detrás,
yo le creo todas sus mentiras
porque son mejor que la verdad.

*
E|---------------- x2
B|----------------
G|----------------
D|---------5--7^--
A|---5--7---------
B|----------------
^ estirar cuerda

**
E|----------------
B|----------------
G|----------------
D|---7/9-7-5-7^---
A|----------------
B|----------------

C         D       G  F#m  Em
Su fantasía es mi rea-li-dad
C         D       G***
Pero me da felicidad,
                         *
sabor amargo en mi paladar
pero me da felicidad.

***

E|----2---3----3---2---3--3-2--
B|----3---3----3---3---3--3-3--
G|-----------------------------
D|-----------------------------
A|-----------------------------
B|-----------------------------


Ella es una estrella encendida....

Su fantasía es mi rea-li-dad
Pero me da felicidad,
sabor amargo en mi paladar
pero me da felicidad.

Pero me da felicidad x2
Suggest correction
Give kudos to tab author, rate the tab!
1 2 3 4 5
comments
print report bad tab
guest
You may want to rate the tab now too:
select rating
Wanna post a correction for this tab? Suggest correction