Oops, an error
Loading. Please wait.

La Vida Modelo Tab

13 views 1 this week
no commentswrite comment
1 2 3 4 5
3 more votes to show rating
add to favorites
launch autoscroll
font size
0
reset
how to read this tab
guitar tuner
×
Best way to learn
"La Vida Modelo"
Autoscroll
slow
fast
+/-
esc
set tempo
stop
Riff Sintetizador (X2)

Riff Sintetizador|(X4)
Base 1           |

(Base 2)           Fill 1
 Este es el camino
(Base 1)
 donde todos buscan algo
(Base 2)        Fill 2
 Yo soy mi destino
(Base 2)               Fill 3
 porque creo en lo que hago


Riff Sintetizador|(X2)
Base 1           |


(Base 2)       Fill 1'
 La vida modelo
(Base 1)
 es un gran supermercado
(Base 2)             Fill 2'
 Vos podes ser libre,
(Base 1)         Fill 3
 vos podes ser dominado

(Base Estribillo)
 Es tu decisión,
 quizas, lo mejor llegó...


Riff Sintetizador|(X2)
Base 1           |

(Base 2)           Fill 1
 Después del colegio
(Base 1)
 trabajar, volverte viejo
(Base 2)       Fill 2
 Son los eslabones
(Base 2)        Fill 3
 que la vida te propone

(Base Estribillo)
 Es tu decisión,
 quizas, lo mejor llegó...


Riff Sintetizador|(X2)
Base 1           |

Riff Sintetizador (X4)

(Solo el Bajo)
 LA vida modelo
 es un gran supermercado
 Vos podes ser libre,
 vos podes ser dominado


(Base Estribillo)
 Es tu decisión,
 quizas, lo mejor llegó...

(Sobre Riff Sinte y Base 1)
Sha la la la, la la
Sha la la la, la la
Sha la la la, la la
Sha la la la, la la

(Base Estribillo)
 Es tu decisión,
                     G
 quizas, lo mejor llegó...


Punteos:

Riff Sintetizador:
  |       |       |       |        |       |       |       |
e|--------15----------------------|------------------------15--18--|
B|----------------15--14------13--|----13--------------17----------|
G|12----------12------------------|------------14--15--------------|
D|--------------------------------|--------------------------------|
A|--------------------------------|--------------------------------|
E|--------------------------------|--------------------------------|


Base 1:
  |       |       |       |        |       |       |       |
e|--------------------------------|--------------------------------|
B|--------------------------------|--------------------------------|
G|--------------------------------|--------------------------------|
D|----------------7---6-------5---|----5---5---3---3---3---3---3---|
A|5-------5---5---5---4-------3---|----3---3---0---1---0---1---0---|
E|3-------3---3-------------------|--------------------------------|


Base 2:
  |       |       |       |
e|--------------------------------|
B|--------------------------------|
G|--------------------------------|
D|----------------7---6-------5---|
A|5-------x---x---5---4-------3---|
E|3-------x---x-------------------|


Fill 1:                              Fill 1':
  |       |       |       |            |       |       |       |
e|--------------------------------|  e|--------------------------------|
B|--------------------------------|  B|--------------------------------|
G|------------------------3-------|  G|------------------------3-------|
D|----------------3---5---3-------|  D|----------------3-4-5---3-------|
A|----------------3---5-----------|  A|----------------3-4-5-----------|
E|--------------------------------|  E|--------------------------------|


Fill 2:                               Fill 2':
  |       |       |       |            |       |       |       |
e|--------------------------------|  e|--------------------------------|
B|----------------11--------------|  B|--------------------------------|
G|12--12--10--12--12--12--10------|  G|------------12--12--12--12--10--|
D|12--12--10--12------12--10------|  D|------------12--12--12--12--10--|
A|--------------------------------|  A|--------------------------------|
E|--------------------------------|  E|--------------------------------|


Fill 3:
  |       |       |       |
e|--------------------------------|
B|--------------------------------|
G|--------------------------------|
D|----5---4---3---2---------------|
A|--------------------6---5---4---|
E|--------------------------------|


Base Estribillo

  |       |       |       |        |       |       |       |
e|--------------------------------|--------------------------------|
B|--------------------------------|--------------------------------|
G|--------------------------------|------------5-----------5-------|
D|7---7---7---7---7---7---7---7---|5---6---7-----------7-------7---|
A|5---5---5---5---5---5---5---5---|--------------------------------|
E|--------------------------------|--------------------------------|
          Es      tu               De-----ci------sión

  |       |       |       |        |       |       |       |
e|--------------------------------|--------------------------------|
B|--------------------------------|--------------------------------|
G|--------5-----------------------|3-------3---5b6-----------------|
D|5---5---5---5---5---5---5---5---|----5---------------------------|
A|3---3-------3---3---3---3-------|--------------------------------|
E|--------------------------------|--------------------------------|
          Qui-----zas              lo  me------jor  llegó...


Eso es todo, para comentarios, pedidos, puteadas, etc. mandenmen un mail a neotokio3@
Suggest correction
Give kudos to tab author, rate the tab!
1 2 3 4 5
comments
print report bad tab
guest
You may want to rate the tab now too:
select rating
Wanna post a correction for this tab? Suggest correction