Oops, an error
Loading. Please wait.

Me Hiciste Mal Tab

46 views 1 this week
no commentswrite comment
1 2 3 4 5
3 more votes to show rating
add to favorites
launch autoscroll
font size
0
reset
how to read this tab
guitar tuner
×
Best way to learn
"Me Hiciste Mal"
Autoscroll
slow
fast
+/-
esc
set tempo
stop
El tema es muy sencillo...y es excelente por cierto
Guitarra acompañamiento hace los acordes que describo
la solista se las explico....

Intro de piano...
Estrofa:
A           Bm   C#m            D
Me hiciste mal, perdí el control
A           Bm   C#m            D
No quiero hablar, ya se que vos

Estribillo:
G         A              D          Bm
Pensás que el mundo gira a tu alrededor,
G         A              D          Bm
que todo empieza y termina con vos
(G    A)

Me hiciste mal, no te importó
Tu suavidad hoy me engañó

Pensás que el mundo gira a tu alrededor,
que todo empieza y termina con vos

(Durante el solo de teclado utiliza los acordes de la estrofa)

Pensás que el mundo gira a tu alrededor,
que todo empieza y termina con vos (x2)


Guitarra solista:
-----------------------------------------------------------
Durante la estrofa hace
    
   A       Bm                C#m     D  
e--0-------2-----------------------------------------------
B--2-------3----------2-------2------3-2------3-2----------
G--2-------4------2-4---4-2-4------------4-2------4-2------
D--2-------4--2-4------------------------------------------
A--0-------2-----------------------------------------------
E----------------------------------------------------------


En el estribilo hace los acordes pero al final del estribillo
donde pongo el paréntesis hace esto:

 (G          A)               (A de: Me hiciste mal...)
e----------------------------------------------------------
B----------------------------------------------------------
G-----------------0----------------------------------------
D----------0--2-3---3-2-0-2--------------------------------
A-----0-2--------------------------------------------------
E-3-3------------------------------------------------------


Bueno eso es todo a disfrutar...
está bastante claro no? que más quieren?
cualquier comentario escribir a cuarta_d@
Suggest correction
Give kudos to tab author, rate the tab!
1 2 3 4 5
comments
print report bad tab
guest
You may want to rate the tab now too:
select rating
Wanna post a correction for this tab? Suggest correction