Oops, an error
Loading. Please wait.

Sabado A La Noche Chords

version 1
version 1

Whole song

73 views 3 this week
no commentswrite comment
1 2 3 4 5
3 more votes to show rating
add to favorites
launch autoscroll
font size
0
reset
transpose
0
reset
display chords
guitar tuner
×
Best way to learn
"Sabado A La Noche"
Autoscroll
slow
fast
+/-
esc
set tempo
stop
C#m      G#m
Sabado a la noche otra vez
             C#m       G#m
solo y confundido te llamé
     A      B    E
escuché tu voz lejana
        A           B     Riff 1
y en silencio te corté.

Un millón de veces te busqué
entre los gemidos del placer
y tal vez me diste todo
pero no lo supe ver.      Riff 1

F#m        G#m
Dejaste en mi
     C#m     G#
el sabor de ayer
F#m     G#m
no se pedir
        C#m     G#
lo que me hace bien
A            B            Riff 1
sabado otra vez.

Sabado a la noche otra vez
musica de fondo en la TV
las pastillas en mi almoada
y tu foto en la pared.    Riff 1

Solo de guitarra

Riff 1

Dejaste en mi
el sabor de ayer
no se pedir
lo que me hace bien
sabado otra vez.

             C#m       G#m
Sabado a la noche otra vez
Sabado a la noche otra vez
Sabado a la noche otra vez
Sabado a la noche otra vez

C#m G#m (repite hasta el final)


Riff 1
e----------------------------|
B----------------------------|
G----------------------------|
D----------------------------|
A-2---2-2-0---0-0-------2----|
E-----------------4-2-4------|

Solo de guitarra
e-------------------------------------------------------------------------|
B-------------------------------------------------------------------------|
G-9-8-6-8-6/8-6---------9-8-6-8-6/8-6----------------6-4------------------|
D---------------2-4-4/6---------------2-4-6-9--6-9-7-----4/2-4-6-6h7-6-4-2|
A-------------------------------------------------------------------------|
E-------------------------------------------------------------------------|

gente, a ver si se ponen las pilas y ponen bien los acordes,
las tablaturas y sobre todo las letras... por puteadas y otros:
noruegaz@
Suggest correction
Give kudos to tab author, rate the tab!
1 2 3 4 5
comments
print report bad tab
guest
You may want to rate the tab now too:
select rating
Wanna post a correction for this tab? Suggest correction