Oops, an error
Loading. Please wait.

Sabado Otra Vez Tab

7 views 1 this week
no commentswrite comment
1 2 3 4 5
3 more votes to show rating
add to favorites
launch autoscroll
font size
0
reset
how to read this tab
guitar tuner
Autoscroll
slow
fast
+/-
esc
set tempo
stop
Aca les mando unos punteítos de este tema.
Que los disfruten...

Despues de cada estrofa hace:
|-------------------------|
|-------------------------|
|-------------------------|
|-------------------------|
|---2--2-0--0-------2-----|
|-------------4-2-4-------|


Solo:
|-----------------------------------------------------------------------|
|--5-4-2-4-3/4-2----------5-4-2-4-3/4-2------------------2--------------|
|--------------------1~---------------------1-3--2/4-2~----4~-----------|
|----------------2-4--------------------2-4--------------------2/4--2~--|
|-----------------------------------------------------------------------|
|-----------------------------------------------------------------------|

|-----------------------------------------------------------------------|
|-----------------------------------------------------------------------|
|----1-2-1--------------------------------------------------------------|
|--4-------4-2----------------------------------------------------------|
|---------------2--2-0--0-------2---------------------------------------|
|-------------------------4-2-4-----------------------------------------|

Este punteo lo hace repetidas veces hasta que termina el tema:
|---------------------------------------|
|---2-2-0---0-0---2-2-0--0-0---2-2-0----|
|---------------------------------------|
|---------------------------------------|
|---------------------------------------|
|---------------------------------------|


Saludos desde Argentina.
Cualquier duda o comentario a matimatocq@
Suggest correction
Give kudos to tab author, rate the tab!
1 2 3 4 5
comments
print report bad tab
guest
Wanna post a correction for this tab? Suggest correction