Oops, an error
Loading. Please wait.

Si Pudieras Olvidar Chords

22 views 3 this week
no commentswrite comment
1 2 3 4 5
3 more votes to show rating
add to favorites
launch autoscroll
font size
0
reset
transpose
0
reset
display chords
guitar tuner
Autoscroll
slow
fast
+/-
esc
set tempo
stop
Strumming
There is no strumming pattern for this song yet. and get +5 IQ
C         Am   F           G...
Se que deberia decirte la verdad,
cuando las heridas vuelvan a cerrar,
todo es culpa mia, todo lo hice mal,
pero es imposible volver el tiempo atras.
      C-Am-F-G        C-Am-F-G
Si pudieras olvidar, si pudieras olvidar,
F        G
aaahh, de lo que fui...

[2 VUELTAS]
C            Am    F           G...
Esta noche puedo volverlo a intentar,
bajo las estrellas, tus ojos de cristal,
quiero que confies en mi una vez mas,
o que me crucifiques, y vuelvas a empezar
      C-Am-F-G        C-Am-F-G
Si pudieras olvidar, si pudieras olvidar,
F        G
aaahh, de lo que fui...

[2 VUELTAS, 2 DE PUNTEADA DE BAJO Y 2 DE GUITARRA]
      C-Am-F-G        C-Am-F-G
Si pudieras olvidar, si pudieras olvidar,
F        G           C  
aaahh, de lo que fui...

La punteada de bajo es mas o menos asi:
                                                Rapido  
G---------------------------------------------+-------------
D---------------------------------------------+-------------
A-3--3-3--3-3-2-0--0-0--0-0-------------------+---0-2-3-2-0-
E---------------------------3-1--1-1--1-3-1-3-+-3-----------

La punteada de guitarra es mas o menos asi:

e-----------------1-0---1-0------------------------------
B---------0-----------3-----3-0--------------------------
G-------2---2-0------------------------------------------
D-----1--------------------------------------------------
A-3-3----------------------------------------------------
E--------------------------------------------------------

Y ESO ES TODO...
Suggest correction
Give kudos to tab author, rate the tab!
1 2 3 4 5
comments
print report bad tab
guest
Wanna post a correction for this tab? Suggest correction