Oops, an error
Loading. Please wait.

Superman Bass

7 views 1 this week
no commentswrite comment
1 2 3 4 5
3 more votes to show rating
add to favorites
launch autoscroll
font size
0
reset
guitar tuner
×
Best way to learn
"Superman"
Autoscroll
slow
fast
+/-
esc
set tempo
stop
INTRO
1-------------------------------------------|
2-----------------000-----------------------|X3
3-------2222-3333-----------3333-2222-000---|
4--3333----------------3333-----------------|

EMPIESA A CANTAR RODRIGO
1---------------------------|
2---------------------------|
3--------2-222--3-333-------|
4--3-333--------------3-333-|
corro a ciegas buscandote imaginando historias de placer

1-------------------------------------------|
2-------------------------------------------|
3--2-222--3-333---------2-222--3-333--------|
4----------------3-333----------------3-333-|
algo va a estallar, yo lo se, ella dijo q no volvera a flotar

1---------------------------|
2---------------------------|
3--------2-222--3-333-------|
4--3-333--------------3-333-|
hasta q yo no vuele como superman

INTERLUDIO
1-------------------------------------------|
2-----------------000-----------------------|X2
3-------2222-3333-----------3333-2222-000---|
4--3333----------------3333-----------------|


1---------------------------|
2---------------------------|
3--------2-222--3-333-------|
4--3-333--------------3-333-|
nesesito colocar mi cabeza en otra dimencion

1-------------------------------------------|
2-------------------------------------------|
3--2-222--3-333---------2-222--3-333--------|
4----------------3-333----------------3-333-|
nada va a quebrar, mi armazon, ella dijo q no volvera a flotar

1---------------------------|
2---------------------------|
3--------2-222--3-333-------|
4--3-333--------------3-333-|
hasta q yo no vuele como superman

INTERLUDIO
1-------------------------------------------|
2-----------------000-----------------------|X2
3-------2222-3333-----------3333-2222-000---|
4--3333----------------3333-----------------|

1------------------|
2-------0000-------|X4
3------------3333--|
4--3333------------|

TRANQUILO
1----------------------------------------------|
2-----------------------------------0--0-0-0---|
3-------------3--3-3-3-------------------------|
4--3--3-3-3--------------3--3-3-3--------------|
ha ha ha superman ella dijo q

1----------------------------------------------|
2-----------------------------------0--0-0-0---|
3-------------3--3-3-3-------------------------|
4--3--3-3-3--------------3--3-3-3--------------|
ha ha ha superman ella dijo q

1----------------------------------------------|
2-----------------------------------0--0-0-0---|
3-------------3--3-3-3-------------------------|
4--3--3-3-3--------------3--3-3-3--------------|
ha ha ha superman ella dijo q

RAPIDO
1---------------------------|
2--------------------0-000--|
3--------3-333--------------|
4--3-333-------3-333--------|
ha ha ha superman ella dijo q

1---------------------------|
2--------------------0-000--|
3--------3-333--------------|
4--3-333-------3-333--------|
ha ha ha superman ella dijo q

1---------------------------|
2--------------------0-000--|
3--------3-333--------------|
4--3-333-------3-333--------|
ha ha ha superman ella dijo q

1--------------------------------|
2--------------------0-000-------|
3--------3-333-------------------|
4--3-333-------3-333--------3-333|
ha ha ha superman ella dijo q no volvera
Suggest correction
Give kudos to tab author, rate the tab!
1 2 3 4 5
comments
print report bad tab
guest
You may want to rate the tab now too:
select rating
Wanna post a correction for this tab? Suggest correction