Oops, an error
Loading. Please wait.

Tu Instinto Tab

34 views 3 this week
no commentswrite comment
1 2 3 4 5
3 more votes to show rating
add to favorites
launch autoscroll
font size
0
reset
how to read this tab
guitar tuner
×
Best way to learn
"Tu Instinto"
Autoscroll
slow
fast
+/-
esc
set tempo
stop
riff de intro y estribillo
--------------------------------------------------------------
--------------------------------------------------------------
--------------------------------------------------------------
--------------------------------------------------------------
---5-5-5-5-7-5-3-2-5-5-5-5-7-5-3-2-5-3---------------2-5------
---------------------------------------3-3-3-3-5-5-5----------

------------------------------------------------------------------
------------------------------------------------------------------
-------------2-0-0-----------------2-0-0--------------------------
---0-0-0-2-4-------2-4-2-0-0-0-2-4-------2-4-2-5-4-0-0-5-4-0-0-2--x2
------------------------------------------------------------------
------------------------------------------------------------------

D
Sos la chica de la suerte,
tu mirada siempre ardiente
G                             A
Atención: el mundo gira para vos
D
Pero nada es suficiente,
el deseo sigue ardiente
G                             A
Es que vos estas buscando perfección

G         A             Bm          A
Porque tu instinto sabe más que voooos
------------------------------------------------------------------
------------------------------------------------------------------
-------------2-0-0-----------------2-0-0--------------------------
---0-0-0-2-4-------2-4-2-0-0-0-2-4-------2-4-2-5-4-0-0-5-4-0-0-2--
------------------------------------------------------------------
------------------------------------------------------------------


D
Cuando las miradas mienten,
y sus labios sonrientes
G                             A
es mejor seguir en otra dirección
D
Nadie sabe como siente,
esta chica es diferente
G                             A
Pero yo, yo se que soy igual a vos

G         A             Bm          A
Porque tu instinto sabe más que voooos


G         A             Bm          A
Porque tu instinto sabe más que voooos
G         A             Bm          A
Porque tu instinto sabe más que voooos
Suggest correction
Give kudos to tab author, rate the tab!
1 2 3 4 5
comments
print report bad tab
guest
You may want to rate the tab now too:
select rating
Wanna post a correction for this tab? Suggest correction