Oops, an error
Loading. Please wait.

Viernes A La Noche Chords

23 views 1 this week
no commentswrite comment
1 2 3 4 5
3 more votes to show rating
add to favorites
launch autoscroll
font size
0
reset
transpose
0
reset
display chords
guitar tuner
×
Best way to learn
"Viernes A La Noche"
Autoscroll
slow
fast
+/-
esc
set tempo
stop
Intro:
1------------------------------------------------------
2------------------------------------------------------
3------------------------------------------------------
4----7---7-----5-----7-------5------7----7-----5-----7-
5--5---5----3------5------3------5----5------3-----5---  
6------------------------------------------------------

1-------------------------------------------------------------
2-------------------------------------------------------------
3----5---7---7-----5-----7-------5------7----7-----5-------7--
4--3---5---5----3------5------3------5----5------3-----5------
5-------------------------------------------------------------
6-------------------------------------------------------------

1-------------------------------------------------------------
2------------------------------------------------------------
3-------------------------------------------------------------
4----5---7---7-----5-----7-------5------7----7-----5-------7--
5--3---5---5----3------5------3------5----5------3-----5------
6-------------------------------------------------------------

1-------------------------------------------------------------
2-------------------------------------------------------------
3------------------------------------------------------------
4-------------------------------------------------------------
5----5---7---7-----5-----7-------5------7----7-----5-------7--
6--3---5---5----3------5------3------5----5------3-----5------
RIFF:
1------------------------------------------------------------------------------
2------------------------------------------------------------------------------
3------------------------------3----------3------------------------------------
4-------3-----------3------3-5--5------3-5--5-----3-------3--------------------
5--3--5---5----3--5---5------------------------3-5--5--3-5--5------3-------3---
6--------------------------------------------------------------3-5---5--3-5-5--

D                       G
Viernes a la noche,esta subiendo la exitacion,
 D                  A
retroalimentada por vos.
D                           G
Mi auto es un cometa me esta pidiendo velocidad,
 D                   A
Dios viaja sentado atras.
     D           F   G F         G 
Te moves y brillas para mi,me gusta asi,
        D            F G  F         G
porque hoy quiero mas frenesi,esta noche ya no tiene fin.

RIFF

Viernes a la noche,estas vestida para matar,
tu elegante estilo sensual.
Vos sos la serpiente hipnotizando mi voluntad,
dame tu veneno letal.

Te moves y brillas para mi,me gusta asi,
porque hoy quiero mas frenesi,esta noche ya no tiene fin.

Viernes a la noche mi nueva chica ya tiene un plan:
cruzar la frontera real

Te moves y brillas para mi,me gusta asi,
porque hoy quiero mas frenesi,esta noche ya no tiene fin.

UN SALUDO A LA 138 Y AA
EN LA SALA PALO

_MAGMA_
Suggest correction
Give kudos to tab author, rate the tab!
1 2 3 4 5
comments
print report bad tab
guest
You may want to rate the tab now too:
select rating
Wanna post a correction for this tab? Suggest correction