Oops, an error
Loading. Please wait.

El Brujo Tab

74 views 1 this week
no commentswrite comment
1 2 3 4 5
3 more votes to show rating
add to favorites
launch autoscroll
font size
0
reset
how to read this tab
guitar tuner
×
Best way to learn
"El Brujo"
Autoscroll
slow
fast
+/-
esc
set tempo
stop
esta es mi primera cancion que saco... ojala este bn XD...ahi les va:


ESTA ES LA ENTRADA DEL BAJO.

e|-------------------------------|
B|-------------------------------|
G|-------------------------------| se toca repetidamente
D|-------------------------------| en toda la cancion.
A|-------------------------------|
E|----0-4-7-0-7-7-0-4-7-0-7-7----|


ENTRA EN EL 0:04 min.

e|------------------------------------------------------------------|
B|----7--8--10-10--8-7--8--10-10--8-7--8--10-10--8-7--8--10-10------|
G|------------------------------------------------------------------|
D|------------------------------------------------------------------|
A|------------------------------------------------------------------|
E|------------------------------------------------------------------|

e|----5--7--10-10--7-5--7--10-10--7-5--7--10-10--7-5--7--10-10------|
B|------------------------------------------------------------------|
G|------------------------------------------------------------------|
D|------------------------------------------------------------------|
A|------------------------------------------------------------------|
E|------------------------------------------------------------------|


e|------------------------------------------------------------------|
B|----7--8--10-10--8-7--8--10-10--8-7--8--10-10--8------------------|
G|------------------------------------------------------------------|
D|------------------------------------------------------------------|
A|------------------------------------------------------------------|
E|------------------------------------------------------------------|


ENTRA EN EL 0:29 min.                                 ---
                                                        |
e|--5--7--10--10-10h14-12-10-------10--10--|            |
B|--------------------------12-10----------|            |
G|-----------------------------------------|            |
D|-----------------------------------------|            |
A|-----------------------------------------|            |
E|-----------------------------------------|            |
                                                        |
e|---10h14-12-10-------10--10--|                        |
B|---------------12-10---------|                        |
G|-----------------------------|                        |
D|-----------------------------|                        |
A|-----------------------------|                        |
E|-----------------------------|                        |
                                                        |
                                                        |
e|--10h14-12-10-------------------|                     |
B|--------------12-10-10--10------|                     |
G|--------------------------------|                     |2
D|--------------------------------|                     |
A|--------------------------------|                     |V
E|--------------------------------|                     |E
                                                        |C
                                                        |E
e|-------------10------------------|                    |S
B|-------10h12----12-10-12-10--10--|                    |
G|---------------------------------|                    |
D|---------------------------------|                    |
A|---------------------------------|                    |
E|---------------------------------|                    |
                                                        |
e|--------------------------------------------------|   |
B|--10h12-10---------------10h12-10-----------------|   |
G|-----------11-9-11-7--7-----------11-9-11-7--7----|   |
D|--------------------------------------------------|   |
A|--------------------------------------------------|   |
E|--------------------------------------------------|   |
                                                        |
                                                      ---

ENTRA EN EL 1:01 min.

e|-------------------------------------------|
B|------5/10--10--10h12-12-----------10--10--|
G|-------------------------11-9--11----------|
D|-------------------------------------------|
A|-------------------------------------------|
E|-------------------------------------------|

e|--------------------------------------------------|
B|--10h12-12---------10--10--10h12-12---------------|
G|-----------11-9-11------------------11-9-11-7--7--|
D|--------------------------------------------------|
A|--------------------------------------------------|
E|--------------------------------------------------|

e|----------3-2-----------3-2-----------3-2----------|
B|--------3-----3--3----3-----3--3----3-----3--3-----|
G|------2-------------2-------------2----------------|
D|---------------------------------------------------|
A|---------------------------------------------------|
E|---------------------------------------------------|


ENTRA EN EL 1:16 min.                                 ---
                                                        |
e|--5--7--10--10-10h14-12-10-------10--10--|            |
B|--------------------------12-10----------|            |
G|-----------------------------------------|            |
D|-----------------------------------------|            |
A|-----------------------------------------|            |
E|-----------------------------------------|            |
                                                        |
e|---10h14-12-10-------10--10--|                        |
B|---------------12-10---------|                        |
G|-----------------------------|                        |
D|-----------------------------|                        |
A|-----------------------------|                        |
E|-----------------------------|                        |
                                                        |
                                                        |
e|--10h14-12-10-------------------|                     |
B|--------------12-10-10--10------|                     |
G|--------------------------------|                     |2
D|--------------------------------|                     |
A|--------------------------------|                     |V
E|--------------------------------|                     |E
                                                        |C
                                                        |E
e|-------------10------------------|                    |S
B|-------10h12----12-10-12-10--10--|                    |
G|---------------------------------|                    |
D|---------------------------------|                    |
A|---------------------------------|                    |
E|---------------------------------|                    |
                                                        |
e|--------------------------------------------------|   |
B|--10h12-10---------------10h12-10-----------------|   |
G|-----------11-9-11-7--7-----------11-9-11-7--7----|   |
D|--------------------------------------------------|   |
A|--------------------------------------------------|   |
E|--------------------------------------------------|   |
                                                        |
                                                      ---

ENTRA EN EL 1:49 min.

e|-------------------------------------------|
B|------5/10--10--10h12-12-----------10--10--|
G|-------------------------11-9--11----------|
D|-------------------------------------------|
A|-------------------------------------------|
E|-------------------------------------------|

e|--------------------------------------------------|
B|--10h12-12---------10--10--10h12-12---------------|
G|-----------11-9-11------------------11-9-11-7--7--|
D|--------------------------------------------------|
A|--------------------------------------------------|
E|--------------------------------------------------|

e|----------3-2-----------3-2-----------3-2-2~-------|
B|--------3-----3--3----3-----3--3----3-----3~-------|
G|------2-------------2-------------2----------------|
D|---------------------------------------------------|
A|---------------------------------------------------|
E|---------------------------------------------------|


TODO SE VUELVE A REPETIR.


-----------------------------------

COMO VEN, ESTA MUY FACIL XD

SUERTE...!!!

aki mi msn por si alguna duda simplemente_edu_777@
--
Suggest correction
Give kudos to tab author, rate the tab!
1 2 3 4 5
comments
print report bad tab
guest
You may want to rate the tab now too:
select rating
Wanna post a correction for this tab? Suggest correction