Oops, an error
Loading. Please wait.

Espejismo Tab

65 views 1 this week
no commentswrite comment
1 2 3 4 5
3 more votes to show rating
add to favorites
launch autoscroll
font size
0
reset
how to read this tab
guitar tuner
Autoscroll
slow
fast
+/-
esc
set tempo
stop
G - Am7 - G - Am7 - Am - D7

e:-----10-------------------10-----------------------------------------|
B:-12------12--10-8-10--12------12--10-8-12-10-----8-10-12..-----------|
G:----------------------------------------------9----------------------|
D:---------------------------------------------------------------------|
A:---------------------------------------------------------------------|
E:---------------------------------------------------------------------|

    G          Am7       G       Em
Caminando por calles extrañas...

e:-10--------------|
B:-----12----------|
G:---------11--9---|
D:-----------------|
A:-----------------|
E:-----------------|

              Am     Am7     Am
De la gran ciudad

e:-----------------|-----10-12-------|
B:-10-----12----13-|-13--------------|
G:----9------9-----|-----------------|
D:-----------------|-----------------|
A:-----------------|-----------------|
E:-----------------|-----------------|
     Am
Caminando muy triste y muy solo...

e:-----------------|
B:-13-12-10--14...-|
G:-----------------|
D:-----------------|
A:-----------------|
E:-----------------|

                 D7 Am7 D7
Te queria encontrar


                       G  Em
Ay, pero si te encontre
Am             G   Am
del brazo de otro
D7          G      Em     Am
no te moleste, corri y llore
    D7             G
sintiendo el coraje
     Em            Am
de haberte encontrado
    D7        G
con otro querer

           Dm
Ay, pero dime, dime, dime
 G              C
por que me engañaste
              A7
si siempre juraste
         A7          D7
que era yo tu adoracion

D7                  G  Em
Ay, pero dime por que
Am  D7     G   Em   Am
no me esperaste
    D7      G      Em      Am
espejismo fue tan solo tu amor
  D7          G            Em      Am
y de aquel carino que un dia me juraste
 D7              G
el tiempo lo borro

             Dm
Ay, pero dime, dime, dime
G              C
por que me engañaste
              A7
si siempre juraste
         A7          D7
que era yo tu adoracion
Suggest correction
Give kudos to tab author, rate the tab!
1 2 3 4 5
comments
print report bad tab
guest
Wanna post a correction for this tab? Suggest correction