Oops, an error
Loading. Please wait.

A Dios Le Pido Bass Tab

version 1
version 1

Whole song

Interactive

3,089 views 1 this week
no commentswrite comment
1 2 3 4 5
2 more votes to show rating
add to favorites
launch autoscroll
font size
0
reset
guitar tuner
Autoscroll
slow
fast
+/-
esc
set tempo
stop
Help us to improve Ultimate-Guitar.com Take our survey!
×
Author
Introducción:


4 VECES:
g------------------------------------------/
d------------------------------------------/
a------------------------------------------/
E--5--5--5--5--0--0--0--0------------------/





			I ESTROFA

g------------------------------------------/
d------------------------------------------/
a------------------------------------------/
E---5--------------------------------------/

   Que mis ojos se despierten con la luz de tu mirada yo


g------------------------------------------/
d------------------------------------------/
a------------------------------------------/
E----------------5-------------------------/

      a Dios le pido



g------------------------------------------------------/
d------------------------------------------------------/
a-------------------5-------------5--------------------/
E-------5-------------------------------0---0-----0---0/

que mi madre no se muera y que mi padre me recuerde 

g------------------------------------------/
d------------------------------------------/
a------------------------------------------/
E----------------5-------------------------/

      a Dios le pido


Que te quedes a mi lado y que más nunca te me vayas mi vida 
a Dios le pido

que mi alma no descanse cuando de amarte se trate mi cielo
a Dios le pido






			II ESTROFA (totalmente igual a la primera)


Por los días que me quedan y las noches que aun no llegan yo
a Dios le pido

por los hijos de mis hijos y los hijos de tus hijos 
a Dios le pido 

Que mi pueblo no derrame tanta sangre y se levante mi gente 
a Dios le pido 

que mi alma no descanse cuando de amarte se trate mi cielo 
a Dios le pido





			III ESTROFA


g------------------------------------------/
d------------------------------------------/
a------------------------------------------/
E---5-5-5----------4-4-4-------------------/
Un segundo mas de vida para darte


g------------------------------------------/
d------------------------------------------/
a------------------------------------------/
E---3-3-3-------------2-2-2----------------/
      y mi corazón entero entregarte 


g------------------------------------------/
d------------------------------------------/
a------------------------------------------/
E---5-5-5----------4-4-4-------------------/
Un segundo mas de vida para darte

g------------------------------------------/
d------------------------------------------/
a------------------------------------------/
E---3-3-3----------------2-2-2-------------/
      y a tu lado para siempre yo quedarme

g------------------------------------------/
d------------------------------------------/
a------------------------------------------/
E--1-1-1-1-1-1---------0-0-0-0-------------/
    un segundo mas de vida yo


			

			CORO


g------------------------------------------/
d------------------------------------------/
a--------------3---------------------------/
E------------------------------------------/
    a Dios le pido


g------------------------------------------/
d------------------------------------------/
a----3------3-----3----------------/
E------------------------3------------------/
Que si me muero sea de amor


g------------------------------------------/
d------------------------------------------/
a------------------------------------------/
E----3------3-----4--0--5------------------/
y si me enamoro sea de vos


g------------------------------------------/
d------------------------------------------/
a------------------------------------------/
E------5------5------ 5-------3-----------/
y que de tu voz sea este corazón 


g------------------------------------------/
d------------------------------------------/
a------------------------------3-----------/
E----3---------3-------3-------------------/
    todos los días a Dios le pido 



que si me muero sea de amor 
y si me enamoro sea de vos
y que de tu voz sea este corazón


g------------------------------------------/
d------------------------------------------/
a------------------------------------------/
E----3---------3-------3------5------------/
    todos los días a Dios le pido 


SE REPITE LA INTRODUCCIÓN EXACTAMENTE IGUAL
LUEGO LA PRIMERA ESTROFA SIN BAJO
III ESTROFA
Y CORO 4 VECES
Suggest correction
Give kudos to tab author, rate the tab!
1 2 3 4 5
comments
print report bad tab
guest
You may want to rate the tab now too:
select rating
Wanna post a correction for this tab? Suggest correction