Oops, an error
Loading. Please wait.

Amame Tab

2,449 views 1 this week
no commentswrite comment
1 2 3 4 5
please rate
add to favorites
launch autoscroll
font size
0
reset
how to read this tab
guitar tuner
Autoscroll
slow
fast
+/-
esc
set tempo
stop
Help us to improve Ultimate-Guitar.com Take our survey!
×
Author
------------------------------------------------------------------------------
                                    Notas
------------------------------------------------------------------------------
--            (8Em)                    (8F#m)                  (8A)         --
--                                                                          --
--         7     8     9           9    10    11           5     6     7    --
--   E ||--o--|-----|-----|  E ||--o--|-----|-----|  E ||--o--|-----|-----| --
--   B ||-----|--o--|-----|  B ||-----|--o--|-----|  B ||--o--|-----|-----| --
--   G ||-----|-----|--o--|  G ||-----|-----|--o--|  G ||--o--|--o--|-----| --
--   D ||-----|-----|--o--|  D ||-----|-----|--o--|  D ||--o--|-----|--o--| --
--   A |x---—-|-----|-----|  A |x-----|-----|-----|  A ||--o--|-----|--o--| --
--   E |x-----|-----|-----|  E |x-----|-----|-----|  E ||--o--|-----|-----| --
--             (Em)                    (F#m)                   (A)          --
--                                                                          --
--         1     2     3           2     3     4           1     2     3    --
--   E ||-----|-----|-----|  E ||--o--|-----|-----|  E ||-----|-----|-----| --
--   B ||-----|-----|-----|  B ||--o--|-----|-----|  B ||-----|--o--|-----| --
--   G ||-----|-----|-----|  G ||--o--|-----|-----|  G ||-----|--o--|-----| --
--   D ||-----|--o--|-----|  D ||--o--|-----|--o--|  D ||-----|--o--|-----| --
--   A ||---—-|--o--|-----|  A ||--o--|-----|--o--|  A ||-----|-----|-----| --
--   E ||-----|-----|-----|  E ||--o--|-----|-----|  E ||-----|-----|-----| --
------------------------------------------------------------------------------
------------------------------------------------------------------------------


Intro

   (8Em x5 F#m x5)

No puedo estar un día más
Con esta duda de saber si volverás
Tu silencio es como un comején
Que me come lento el corazón
Perdóname se que mentí
Yo soy humano y solo quiero que me des
Una última oportunidad
Para así poderte demostrar

Pre-coro
Em                      F#m
Que me vuelvo loco por ti
                        Em
Que sin ti no puedo vivir
                         F#m
Que mi vida es como un desierto

Cuando no estás
Em                    F#m
Que no puedo ni trabajar
                     Em
Que no puedo ni estudiar
                        A
Que no puedo aguantar más

Esta soledad que me va a matar
---------------
Por eso te digo

 El fondo del coro  (con efecto)
E ||--------7--------------7-------------------9-----------------9--------|
B ||-----8-----10-------8-----10-----------10-----12---------10-----12----|
G ||--9--------------9----------------11-----------------11---------------|
D ||----------------------------------------------------------------------|
A ||----------------------------------------------------------------------|
E ||----------------------------------------------------------------------|

E ||--7----5----3----2------9----7----5----3----|
B ||--------------------------------------------|
G ||--------------------------------------------|
D ||--------------------------------------------|
A ||--------------------------------------------|
E ||--------------------------------------------|

Coro
      8Em
Ámame por más que quieras otra vez
                  8F#m
Y no me dejes tan solo en el olvido

Es todo lo que yo te pido
         8Em
Te digo ámame hasta la muerte ámame
                  8F#m
Que si tu mueres primero yo te juro
Cariño que me voy contigo amor
---------------------------------------
8Em
Porque sin ti mi corazón
                                  8F#m
Es un abismo tan profundo como el mar
Y un segundo es una eternidad
Como para no estar junto a ti
8Em
Perdóname se que mentí
Yo soy humano y solo quiero que me

8F#m
Des una última oportunidad
Para así poderte demostrar

Pre-coro
Coro
Solo
Pre-coro
Coro

8Em
Ámame Oh, Oh, Ah, Ah
8F#m
Ámame  (bis)
Suggest correction
Give kudos to tab author, rate the tab!
1 2 3 4 5
comments
print report bad tab
guest
You may want to rate the tab now too:
select rating
Please do not post tabs as comments. Select "correction" instead!