Oops, an error
Loading. Please wait.

Es Por Ti Bass Tab

2,666 views 12 this week
no commentswrite comment
1 2 3 4 5
2 more votes to show rating
add to favorites
launch autoscroll
font size
0
reset
guitar tuner
Autoscroll
slow
fast
+/-
esc
set tempo
stop
Help us to improve Ultimate-Guitar.com Take our survey!
×
Author
Difficulty
intermediate
----------------------------------------------------------------------------
			     ES POR TI - Juanes
----------------------------------------------------------------------------

Tabbed By : Jorge
e-mail: jofer.st@gmail.com

Tuning: C#m 

           Cada vez que.......
G|-------------------------------------------------------------------------|
D|---66----66----44----44---------------44----44---------------------------|
A|-4----44---4-2----22---2--77----77--2----22---2--------------------------|
E|------------------------5----55----5-------------------------------------|

G|-------------------------------------------------------------------------|
D|---66----66----44----44---------------44----44---------------------------|
A|-4----44---4-2----22---2--77----77--2----22---2--------------------------|
E|------------------------5----55----5-------------------------------------|

  Tus ojos......
G|-------------------------------------------------------------------------|
D|-------------6----66----76-----------------------------------------------|
A|--77----77--7--77----77---9----99----96---99-----------------------------|
E|-5---55----5----------------99----99----7----77--------------------------|

  Y es por ti........
G|-------------------------------------------------------------------------|
D|-------------------------------------------------------------------------|
A|---77----77----22----22----77----77----22----22----77----77----22--------|
E|-5----55---5-0----00---0-5----55---5-0----00---0-5----55---5-0-----------|

G|-------------------------------------------------------------------------|
D|---------------------44--------------------------------------------------|
A|----22----77----77-2----22-----------------------------------------------|
E|-00---0-5----55---5------------------------------------------------------|

   Lo que sigue de la canción es igual que lo anterior.
| /  slide up
| \  slide down
| h  hammer-on
| p  pull-off
| ~  vibrato
| +  harmonic
| x  Mute note
===========================================================================
Suggest correction
Give kudos to tab author, rate the tab!
1 2 3 4 5
comments
print report bad tab
guest
You may want to rate the tab now too:
select rating
Wanna post a correction for this tab? Suggest correction