Oops, an error
Loading. Please wait.

Es Por Ti Tab

version 1
version 1

Whole song

20,290 views 15 this week
1 commentread comment
1 2 3 4 5
accurate
x 3
add to favorites
launch autoscroll
font size
0
reset
how to read this tab
guitar tuner
Tab Pro tools
  • play this tab
  • loop segment
  • change instrument
  • show fretboard
  • metronome
×
Best way to learn
"Es Por Ti"
Autoscroll
slow
fast
+/-
esc
set tempo
stop
Contributor
Es por ti
Juanes
Tabbed by: Mariano Arnaiz
Anything to: marianoarnaiz@hotmail.com


Intro  C#m

Verse 1 (all the verse are like this one)(repeat as necesary)

  C#m  B   A   B
e--4---2---0---2--|
B--5---4---2---4--|
G--6---4---2---4--|
D--6---4---2---4--|
A--4---2---0---2--|
E-----------------|

Pre-chorus (all the pre-chorus are like this one)(repeat as necesary)

   A   E   F#  B
e--0---0---2---2--|
B--2---0---2---4--|
G--2---1---3---4--|
D--2---2---4---4--|
A--0---2---4---2--|
E------0---2------|

Chorus (all the chorus are like this one)(repeat as necesary)

e----9-/--7-/--5-/--4-7----/---7-/--5-/--4-7---------|
B--10--/-9--/-7--/-5---7-5-/--9--/-7--/-5---7-5-5h7--|
G----------------------------------------------------|
D----------------------------------------------------|
A----------------------------------------------------|
E----------------------------------------------------|

Interlude (this part is play by an organ but you can pick the highers notes of the 
to make some like the organ)


  C#m  B   A   B
e--4---2---0---2--|
B--5---4---2---4--|
G--6---4---2---4--|
D--6---4---2---4--|
A--4---2---0---2--|
E-----------------|
comments
We did not receive enough feedback on this tab! Please rate:
print report bad tab
1 2 3 4 5
1 comment total.
0 reply
tomsoyer wrote on September 5 2009, 06:02 pm

chidisima we, alomejor luego me enseñas, jejejeje

I want to post or [tab]
guest
You may want to rate the tab now too:
select rating
Please do not post tabs as comments. Select "correction" instead!