Oops, an error
Loading. Please wait.

Fotografia Tab

version 2
version 2

Whole song

20,720 views 33 this week
no commentswrite comment
1 2 3 4 5
x 14
add to favorites
launch autoscroll
font size
0
reset
how to read this tab
guitar tuner
×
Best way to learn
"Fotografia"
Autoscroll
slow
fast
+/-
esc
set tempo
stop
Author
Difficulty
  follow
intermediate
FOTOGRAFIA
Cantante: Juanes
Autor: The Count of Monte Cristo

Un abrazo, mis amigos del musica.  Este tab ha derivado del video que yo
encontre.  Pueden encontrarlo aqui:
http://www.youtube.com/watch?v=qqitP3Qu4Gc&feature=related
Es para uno guitarra.

[Intro]
Yo lo he escrito en tabulature.

e|------------------------------------------------------2h0--------------|
B|-3h0-----3---------3h0------3--------3h0-----3-------------3-----------|
G|-----2-0----0---0------2-0-----0--0------2-0----0--0----------2--------|
D|-----------0------------------2--2-------------0----------2------------|
A|----------0-----------------3-----------------0----------3---3---------|
E|-3-------2-----2---0-----------------3-------2----2---0----------------|


[Verse]
Los versos siguen esta progresion.  Tambien, yo he incluido una sugerencia para tocarlo:

    G       D/F#      Em         D/F#
e|------------------------------------------------|
B|----3----------3-----------3--------3-----------|
G|----0----------2--0------0---0------2---0-------|
D|--0-----0----0---------2----------0-------------|
A|------2-----------------------------------------|
E|-3---------2-----2---0----------2-----2---------|

G         D/F#       Em             D/F#        G
  Cada vez que yo me voy llevo a un lado de mi piel
D/F#        Em        D/F#        G
Tus fotografias para verlas cada vez

Et cetera...

[Chorus]
Las notas que se usar:
    G      C     Am     Bm
e|--3--  --0--  --0--  --2--|
B|--3--  --1--  --1--  --3--|
G|--0--  --0--  --2--  --4--|
D|--0--  --2--  --2--  --4--|
A|--2--  --3--  --0--  --2--|
E|--3--  --X--  --X--  --2--|

 G              Am
Cada vez que te busco te vas
   G               C
Y cada vez que te llamo no estas
G              Am
Es por eso que debo decir
       Bm           C
Que tu solo en mis fotos estas



************************************

| h  Hammer-on
| X  dead note

************************************
Suggest correction
comments
print report bad tab
guest
You may want to rate the tab now too:
select rating
Wanna post a correction for this tab? Suggest correction