Oops, an error
Loading. Please wait.

Gotas De Agua Dulce Tab

version 1
version 1

Whole song

Interactive

30,487 views 36 this week
2 commentsread comments
1 2 3 4 5
accurate
x 7
add to favorites
launch autoscroll
font size
0
reset
how to read this tab
guitar tuner
Tab Pro tools
  • play this tab
  • loop segment
  • change instrument
  • show fretboard
  • metronome
Autoscroll
slow
fast
+/-
esc
set tempo
stop
Contributor
Acordes:
B:  x2444x
A:  x02220
E:  022100
Dbm:x46654
F#m:244222

RIFF:
     B    A             B    A              B
e|--------------------------------------------------------|
B|-----------------5~----5-----------------5~----5----7---|
G|---------------6-----6---8~------------6-----6---8~-----|
D|-----------4-7---------------9-----4-7------------------|
A|--------------------------------------------------------|
E|---7-7--------------------------------------------------|

        A               B
e|------------------------------|
B|-----------------5~--5--------|
G|---------------6---6---8~-----|
D|-----------4-7------------9---|
A|------------------------------|
E|------------------------------|

  A                 B     A                 B
e|------------------------------------------------------|
B|------------------------------------------------------|
G|------------------------------------------------------|
D|------7-11-11p7---------------------------------------|
A|---9--------------9---6-------------4-----4---6-------|
E|------------------------7--------5------5--------7----|

   A                B     A                  B
e|-----------------------------------------------------|
B|-----------------------------------------------------|
G|-----------------------------------------------------|
D|------7-11--11p7-------------------------------------|
A|----9-------------9--6-----------4--------4----------|
E|-----------------------7------------5--5------7------|


B             A                 B           A        
    Hace mucho tiempo no me enamoraba de unos ojos tan bonitos
     A             B     A
comunes de lozano brillo
B             A                 B
  Era lo que menos en mi plan estaba
          A                    B
aunque te admito que a veces soñaba
          A             B    A
con la belleza de tu mirada

E                                    B
   Quiero llevar el ritmo de tu corazón
                                   A
para bailar entre los dos esta canción
                                    F#m
la verdad, me estoy volviendo a enamorar
             B
la verdad, quiero que sepas que....

E
Lo que yo siento por ti, es amor
Dbm
Ganas que me hace util el corazón
F#m
droga que me hace inmune, ante el dolor
B
gotas de agua dulce, rayo de sol.
(x2)

(riff)

B       A             B   A                          B
Llevame,   de ser preciso,   por la semblanza de tu sombra
A                          B  A                  B
  yo se que tu prendes la luz   y en mi vida te asomas
A                     B    A                     B
  como las blancas palomas,  cuando la plaza se toma
A                E
  con vuelo inmortal
                                    B
   Quiero llevar el ritmo de tu corazón
                                   A
para bailar entre los dos esta canción
                                    F#m
la verdad, me estoy volviendo a enamorar
             B
la verdad, quiero que sepas que....

E
Lo que yo siento por ti, es amor
Dbm
Ganas que me hace util el corazón
F#m
droga que me hace inmune, ante el dolor
B
gotas de agua dulce, rayo de sol.
(x2)
E                      Dbm
  es lo que siento por ti
                       F#m
  es lo que siento por ti
                       B   A   E
  es lo que siento por ti
comments
print report bad tab
2 comments total.
+1 reply
madness44 wrote on April 17 2008, 07:59 pm

ahhh creo q mas bn es...
e-----------------------------------------------
B--------5---5----------------5---5-----7-------
G------6---6---6s8-4--------6---6---6s8---------
D-4--7-----------------4--7---------------------
A-----------------------------------------------

0 reply
MartoARG wrote on June 5 2008, 08:00 pm

man estas sordo

I want to post or [tab]
guest
You may want to rate the tab now too:
select rating
Please do not post tabs as comments. Select "correction" instead!