Oops, an error
Loading. Please wait.

La Calle Tab

89 views 1 this week
no commentswrite comment
1 2 3 4 5
3 more votes to show rating
add to favorites
launch autoscroll
font size
0
reset
how to read this tab
guitar tuner
Autoscroll
slow
fast
+/-
esc
set tempo
stop
Help us to improve Ultimate-Guitar.com Take our survey!
×
Juanes y Juan Luis Guerra - La calle

Por: Isef Gonzalez
Desde Monterrey N.L, Mexico
isef_hunter@

(De preferencia usen acordes con cejilla)

INTRO

   Am        G          Dm        Em
E--------------------------------------
B--------------------------------------
G------------5-----------5--7--7/9--7--
D------5--7-----------7----------------
A--/7----------------------------------
E--------------------------------------

      Am   G             Dm         Em
E-------------------------------------------
B---8^v^------------------------------------
G-----------5--5h7--5-----------------------
D----------------------7----5---------------
A------------------------------7h5h7--7--3--
E-------------------------------------------


        Am
Tú me dijiste que la mañana
      G                Dm  Em
se compraba con un beso

E---5----------------------------------
B---8^---7--5--------------------------
G-------------7-5-7s9--7---------------
D--------------------------------------
A--------------------------------------
E--------------------------------------

             Am
y que la guerra estaba en venta
          G                 Dm  Em
y que la paz tenía su precio

E-------8--10^--10--8------------------
B--/10-----------------10--------------
G--------------------------------------
D--------------------------------------
A--------------------------------------
E--------------------------------------

          Am
Que la política se viste
         G               Dm  Em
de oro, plata y lino fino

E--------------------------------------
B------5-----5h7-----------------------
G---7-----7----------------------------
D--------------------------------------
A--------------------------------------
E--------------------------------------

             Am
y lo que sale de la boca
         G              Dm
paga impuesto en el oído
                      Em
Que cada día es más angosto el camino


CORO:
Am         G              Dm
Ay! que la calle está dura
       Em
Que la calle está dura
Am            G              Dm
Ay! que el que no corre vuela
          Em
Que el que no corre vuela

Am         G            Dm
Ay! que la luna se aleja
       Em
Que la luna se aleja
Am         G
Ay ! me pregunto y medito
Dm                        Em
Cuál es la raíz cuadrada de mi mismo ?


Solo de guitarra 1

    Am          G       Dm           Em
E-------------------------12h10-----10^--10^-------
B--10^--10------10--13---------h13-----------------
G-----------12-------------------------------------
D--------------------------------------------------
A--------------------------------------------------
E--------------------------------------------------
    Am        G      Dm      Em
E-----5--5--5------------------------
B-----8^-8^-8^v----555---------------
G----------------------777-555-------
D------------------------------7-7---
A------------------------------------
E------------------------------------

        Am
Tú me dijiste que la mentira
        G               Dm  Em
usaba lentes de contacto
           Am
y que un zapato de Valentino
        G             Dm  Em
se autoproclamó barato

E--------------------------------------
B--------------------------------------
G--7h5--------5h7---5------------------
D------7h5h7----------7----------------
A--------------------------------------
E--------------------------------------

         Am
Que un arancel se enamoró
           G                   Dm  Em
de un tributario en zona franca

E-----------------------------------------
B---------------------------------8-10----
G-------------------------------9---------
D---5h7-7-7-5h7-7-7-5h7-7-7-5h7-----------
A---5h7-7-7-5h7-7-7-5h7-7-7-5h7-----------
E-----------------------------------------

           Am
Que la anestesia se fue a Londres
       G                Dm
a un congreso de turismo
                    Em
Que cada día trae su afán y te explico


CORO:
Am         G              Dm
Ay! que la calle está dura
       Em
Que la calle está dura
Am            G              Dm
Ay! que el que no corre vuela
          Em
Que el que no corre vuela

Am         G            Dm
Ay! que la luna se aleja
       Em
Que la luna se aleja
Am         G
Ay ! me pregunto y medito
Dm                        Em
Cuál es la raíz cuadrada de mi mismo ?


TROMPETAS:

   Am          G              Dm
E--5-5-7-7-8-8-7-7---------------------
B-------------------8-8-5-5------------
G---------------------------7-7--------
D--------------------------------------
A--------------------------------------
E--------------------------------------

               Em
E--5-5-7-7-8-8-7-7---------------------
B-------------------8-8-5-5------------
G--------------------------------------
D--------------------------------------
A--------------------------------------
E--------------------------------------

   Am          G               Dm
E--5-5-7-7-8-8-7-7---------------------
B-------------------8-8-5-5------------
G---------------------------7-7--------
D--------------------------------------
A--------------------------------------
E--------------------------------------

               Em
E--5-5-7-7-8-8-7-7--7-7----------------
B-----------------------8-8-10---------
G--------------------------------------
D--------------------------------------
A--------------------------------------
E--------------------------------------

   Am              G                   Dm
E--8-8-10-10-12-12-10-10------------------
B-------------------------12-12-8-8-------
G-----------------------------------10-10-
D-----------------------------------------
A-----------------------------------------
E-----------------------------------------

                   Em
E--8-8-10-10-12-12-10-10---------------
B-------------------------12-12-8-8----
G--------------------------------------
D--------------------------------------
A--------------------------------------
E--------------------------------------

   Am              G                    Dm
E--8-8-10-10-12-12-10-10------------------
B-------------------------12-12-8-8-------
G-----------------------------------10-10-
D-----------------------------------------
A-----------------------------------------
E-----------------------------------------

                   Em
E--8-8-10-10-12-12-10------------------
B--------------------------------------
G--------------------------------------
D--------------------------------------
A--------------------------------------
E--------------------------------------

         Dm
Y que no hay favoritismos con el café
Am
El que primero cuela es el que va a beber
     Dm
Que Tchaikovsky era ruso y Debussy francés
Am                        G
Cuando el río suena es que agua trae lo sé
        Dm
Que los clubes son trincheras de la societé
Am
Donde caben siete caben veintitrés
       Dm                     C
Que la noche pinta buena para Star Trek
Bm              Em
Hey! Man, no te jueges con eso !


CORO:
Am         G              Dm
Ay! que la calle está dura
       Em
Que la calle está dura
Am            G              Dm
Ay! que el que no corre vuela
          Em
Que el que no corre vuela

Am         G            Dm
Ay! que la luna se aleja
       Em
Que la luna se aleja
Am         G
Ay ! me pregunto y medito
Dm                        Em
Cuál es la raíz cuadrada de mi mismo


Solo de Guitarra 2

E--11^--10----10-----------------------
B----------13----10--------------------
G--------------------------------------
D--------------------------------------
A--------------------------------------
E--------------------------------------

E--/5-8-5-8-5--------------------------
B-------------8-5-8-5------------------
G---------------------7-5-7-5-7---5----
D-----------------------------------7--
A--------------------------------------
E--------------------------------------

E--8-5---------------------------5-----
B------8-5-------------------5-8-------
G----------7-5-------5---5-7-----------
D--------------7-5-7---7---------------
A--------------------------------------
E--------------------------------------

E--------------------------------------
B---------------------------------8-10-
G-------------------------------9------
D---5h7-7-7-5h7-7-7-5h7-7-7-5h7--------
A---5h7-7-7-5h7-7-7-5h7-7-7-5h7--------
E--------------------------------------

E------17-17-17-----17-17-17-----------
B--20^----------20^----------20^-------
G--------------------------------------
D--------------------------------------
A--------------------------------------
E--------------------------------------

E--17-17-17-17-17-17------------------- |
B--20^20^20^20^20^20^v----------------- |
G-------------------------------------- |
D-------------------------------------- --2 veces
A-------------------------------------- |
E-------------------------------------- |

E--17--17-15-17-15-----------------------------------
B--20^-------------17-15-17-15-13----13--------------
G---------------------------------16----16-14-12-14--
D----------------------------------------------------
A----------------------------------------------------
E----------------------------------------------------

(Trompetas)
Suggest correction
Give kudos to tab author, rate the tab!
1 2 3 4 5
comments
print report bad tab
guest
You may want to rate the tab now too:
select rating
Wanna post a correction for this tab? Suggest correction