Oops, an error
Loading. Please wait.

La Camisa Negra Bass Tab

version 1
version 1

Whole song

Interactive

9,376 views 1 this week
1 commentread comment
1 2 3 4 5
1 last vote to show rating
add to favorites
launch autoscroll
font size
0
reset
guitar tuner
Autoscroll
slow
fast
+/-
esc
set tempo
stop
Help us to improve Ultimate-Guitar.com Take our survey!
×
Author
INTRO (0:04)   SE REPITE DOS VECES

G---------------------------------------------------------------------|
D--4------4---4-----6------6---6-----4------4---4---------0-0---------|
A-----4-4-------4-4----4-4-------4-4----4-4-------4-4--2------4-2-0---|
E-------------------------------------------------------------------4-|

LA TERCERA VES SE TOCA ESTO
G--------------------------------|
D--4------4---4-----4------4-----|
A-----4-4-------4-4----4-4-------|
E--------------------------------|

SE REPITE 2 VECES (0:29)
G---------------------------------------------------------------------|
D--4------4---4-----6------6---6-----4------4---4---------0-0---------|
A-----4-4-------4-4----4-4-------4-4----4-4-------4-4--2------4-2-0---|
E-------------------------------------------------------------------4-|
LUEGO ESTO
G--------------------------------------------------------|
D-4----------6-----6-----4-----4---4--------0-0----------|
A---4-4-/9/4---4-4---4-4---4-4-------4-4--2-----4-2-0----|
E----------------------------------------------------4---|

SE REPITE 4 VECES (0:59)
G----------------------------|
D----------------------------|
A----------1---2-------------|
E--2---4---------------------|

SE REPITE X 4
G---------------------------------------------------------------------|
D--4------4---4-----6------6---6-----4------4---4---------0-0---------|
A-----4-4-------4-4----4-4-------4-4----4-4-------4-4--2------4-2-0---|
E-------------------------------------------------------------------4-|

LA QUINTA VES SE TOCA ESTO (1:59)
G-----------------------------------|
D--4------4---4-----4------4--4-----|
A-----4-4-------4-4----4-4------4-4-|
E-----------------------------------|

 2 VECES
G-------------------------------------------|
D--4---4---6---6---4---4-------0-0----------|
A----4---4---4---4---4---4--2------4-2-0----|
E----------------------------------------4--|

LUEGO ESTO
G--------------------------------------------------------|
D-4----------6-----6-----4-----4---4--------0-0----------|
A---4-4-/9/4---4-4---4-4---4-4-------4-4--2-----4-2-0----|
E----------------------------------------------------4---|

SE REPITE 4 VECES (2:33)
G----------------------------|
D----------------------------|
A----------1---2-------------|
E--2---4---------------------|

FINAL SE REPITE X 4
G---------------------------------------------------------------------|
D--4------4---4-----6------6---6-----4------4---4---------0-0---------|
A-----4-4-------4-4----4-4-------4-4----4-4-------4-4--2------4-2-0---|
E-------------------------------------------------------------------4-|
Suggest correction
Give kudos to tab author, rate the tab!
1 2 3 4 5
comments
print report bad tab
1 comment total.
0 reply
diego.gaaga.122 10 Oct 01, 2015 12:37 AM

Lack of accuracy. There's no indication of when the chorus or the verses starts and it should be in english. wfhsdg ldkfhsndkj dslfkhsd fdslkgns ldkfns sdlsbl sdl f f gdgsd sg gsd dsgfs

guest
You may want to rate the tab now too:
select rating
Wanna post a correction for this tab? Suggest correction