Oops, an error
Loading. Please wait.

La Camisa Negra Tab

version 1
version 1

Whole song

Interactive

132,097 views 27 this week
1 commentread comment
1 2 3 4 5
worth learning
x 6
add to favorites
launch autoscroll
font size
0
reset
how to read this tab
guitar tuner
Tab Pro tools
  • play this tab
  • loop segment
  • change instrument
  • show fretboard
  • metronome
×
Best way to learn
"La Camisa Negra"
Autoscroll
slow
fast
+/-
esc
set tempo
stop
Contributor
La Camisa Negra
juanes

standart tuning (e, B, G, D, A, E)

This part is the rhythm guitar

 F#m
E||---------------|-----------------------|
B||----2----2-----|------2--------2-------|
G||----2----2-----|------2--------2-------|
D||----4----4-----|------4--------4-------|
A||---------------|------------4----------|
E||---2-----------|--2--------------------|

F#m
E||---------------|-----------------------|
B||----2----2-----|------2--------2-------|
G||----2----2-----|------2--------2-------|
D||----4----4-----|------4--------4-------|
A||---------------|------------4----------|
E||---2-----------|--2--------------------|

   C#7
E||--------------------|
B||----2--2-----2----2-|
G||----4--4-----4----4-|
D||----3--3-----3----3-|
A||--4--------4----4---|
E||--------------------|

F#m
E||---------------|-----------------------|
B||----2----2-----|------2--------2-------|
G||----2----2-----|------2--------2-------|
D||----4----4-----|------4--------4-------|
A||---------------|------------4----------|
E||---2-----------|--2--------------------|

Bm                                    F#m
E||-------------------|---------------|------------------------|
B||----3--3-----2---2-|----2----2-----|------2--------2--------|
G||----4--4-----4---4-|----2----2-----|------2--------2--------|
D||----4--4-----3---3-|----4----4-----|------4--------4--------|
A||--2--------4-------|---------------|------------4-----------|
E||-------------------|---2-----------|--2---------------------|

First you have a litle intro but i still have to figure that out, any way this part 
at 15 seconds (rhythm guitar on the background)

e|----------------------------------------------------------------|
B|----------------------------------------------------------------|
G|---2-2-2---2-6-6p2--2-6-6p2--2----4-4-4---4-7-7p4--4-7-7p4-4----|
D|-4-------4---------4---------4—4s6------6---------6--------6----|
A|----------------------------------------------------------------|
E|----------------------------------------------------------------|
                                      |< this part 4 times          >|
e|------------------------------------|<---------------------------->|
B|------------------------------------|<---------------------------->|
G|---2-2-2---2-6-6p2--2-6-6p2--2------|<4-4-6-7-6-4----------------->|
D|-4-------4---------4---------4—4s6--|<------------7-6~~~---------->|
A|------------------------------------|<---------------------------->|
E|------------------------------------|<---------------------------->|


Then the chorus ( I think its the best part of the song) you play it 3 times after eachother


E||----2------4------6-----7--------|
B||----2------4------6-----7--------|
G||----3------4------6-----8--------|
D||----4------2------8 ----9--------|
A||----4----- 2------8-----9--------|
E||----2------4------6-----7--------|

I hope you people like the tab, its my first so enjoy!! ;-)

by: daniel de booij
comments
print report bad tab
1 comment total.
0 reply
stefanaras00 wrote on September 5 2015, 12:56 pm

Lack of formatting. Lack of accuracy. hi i am steve and would like to tell you that this tab is awfull couldnt read shit out of it

I want to post or [tab]
guest
You may want to rate the tab now too:
select rating
Please do not post tabs as comments. Select "correction" instead!