Oops, an error
Loading. Please wait.

La Camisa Negra Tab

version 2
version 2

Intro

Whole song

Interactive

18,432 views 6 this week
1 commentread comment
1 2 3 4 5
worth learning
x 3
add to favorites
launch autoscroll
font size
0
reset
how to read this tab
guitar tuner
Tab Pro tools
  • play this tab
  • loop segment
  • change instrument
  • show fretboard
  • metronome
×
Best way to learn
"La Camisa Negra"
Autoscroll
slow
fast
+/-
esc
set tempo
stop
Difficulty
intermediate

Juanes - La Camisa Negra                                 

Tabed by:

         TALAL ck
         ANNABA
         ALGERIA
         e-mail: talalCK@walla.com

If there are comments or corrections,mail me.

Intro :

C2-->Barr at 2th fret

Rrythm
      F#m                                                                  
E||-----------------------|-----------------------||----------------------|
B||--------2---------2----|-------2---------2-----||-------2---------2----|
G||*-------2---------2----|-------2---------2----*||-------2---------2----|
D||*-------4---------4----|-------4---------4----*||-------4---------4----|
A||-----------------------|------------4----------||------------4---------|
E||---2-------------------|--2--------------------||--2-------------------|

Solo
  F#m             Bb                           C#7                 
---------------------|-----------------------|---------------------|
---------------------|-----------------------|---------------------|
--2----2----------1/-|--2--2----1/-2----2----|--4----4----------3/-|
--4----4----------3/-|--4--4----3/-4----4----|--6----6----------5/-|
---------------------|-----------------------|---------------------|
---------------------|-----------------------|---------------------|


                          F#m                                         
-----------------------|---------------------|-----------------------|
-----------------------|---------------------|-----------------------|
--4--4----3/-4----4----|--6----6----------5/-|--6--6----5/-6----6----|
--6--6----5/-6----6----|--7----7----------6/-|--7--7----6/-7----7----|
-----------------------|---------------------|-----------------------|
-----------------------|---------------------|-----------------------|


  Bm                     C#7                                C2.....      
----------------------|----------------------|---------------------|
------------7----7----|--6----6--------------|---------------------|
--7------7--7----7----|--6----4----6-4h5p4---|------------------2-2|
--9------9------------|----------------------|--6--4--------4-4----|
----------------------|----------------------|---------------------|
----------------------|----------------------|---------------------|


..................... C3...................                                                     
--------------------|------------------------|
------2------2------|-------------3-----3----|
----2---2--2---2----|-----4-4---4---4--4--4--|
--4------4------4---|--6-6-----6------6----6-|
--------------------|------------------------|
--------------------|------------------------|

C2.....................                                 Pizag
-----------------------|--------------------------|------------------||
------------2----2-----|------7-7--6--------------|------2.2.--------||
---2-2----2---2-2--2---|------7-7--6-6-4h5p4------|----------2.------||
4-4-----4------4----4--|--9-9-----------------6-4~|--4-4-------4-----||
-----------------------|--------------------------|------------------||
-----------------------|--------------------------|------------------||


now the chord goes like this


F#m          C#7       
............negra
              F#m
...............loto
                   Bm
...................penna
      C#7          F#m
....culpa.........embrujo 


Hope you enjoyed this , Stay tuned for my next one.


/-=============================================================\
$  __   __  NOTHIN'            talalCK@walla.com            O   |
$ /  `-' /    But    ,,,       Annaba Institute for        /|\  $
$ |]={=}=|||||||||||[:::}      Urban Arrangement  and     (o="- |
$ \__,-._\    THE    ```       Planing     -Algeria-       / \  $
$            BLUES             Tel.(+213)  063 39 69 83         |
\-=============================================================-/

comments
We did not receive enough feedback on this tab! Please rate:
print report bad tab
1 2 3 4 5
1 comment total.
0 reply
pscafidi wrote on August 21 2007, 05:49 pm

Good tab. An easier way to play along with the song is tune 1/2 step down and play the song in Gm. It makes the transition to the chorus in G major a bit smoother with the open position chords of G Am7 Bm7 C.

I want to post or [tab]
guest
You may want to rate the tab now too:
select rating
Please do not post tabs as comments. Select "correction" instead!