Oops, an error
Loading. Please wait.

La Paga Tab

version 3
version 3

Whole song

Interactive

1,190 views 1 this week
no commentswrite comment
1 2 3 4 5
2 more votes to show rating
add to favorites
launch autoscroll
font size
0
reset
how to read this tab
guitar tuner
Autoscroll
slow
fast
+/-
esc
set tempo
stop
Help us to improve Ultimate-Guitar.com Take our survey!
×
Author
Difficulty
novice
Artist: Juanes
Song: La Paga
Tabbed by: Fernando Maravilla
Email: i_heart_interpol@hotmail.com

Tuning: Standard

Enjoy.

Intro/Most Of The Song:

e|-5--5--5--5--5--5--7--7--|
B|-5--5--5--5--6--6--5--5--|
G|-5--5--5--5--5--5--4--4--|
D|-------------------------|
A|-------------------------|
E|-------------------------|

Keyboard Intro:

e|------------------------------------|
B|---------------------10-10----------|
G|-/9-7-9-10-12-10\7-9-------7-9~-----|
D|-------------------------------7~---|
A|------------------------------------|
E|------------------------------------|

Then you keep repeating the intro part for a while until:

e|---------------------------------|
B|---------------------------------|
G|-5-7-9-7-5-7-9-7-5---------------|
D|-------------------9-7--7-5------|
A|----------------------------7-5--|
E|---------------------------------|

e|-------------------------------------------------|
B|--------------------8-10--10-8-7---10-8-7--------|
G|-5-7-9-7-5-7-8-9-10--------------9--------9-7\---|
D|-------------------------------------------------|
A|-------------------------------------------------|
E|-------------------------------------------------|

Intro Chords Once Again.

The Chorus Is The Same Chords, they are simply played in the background.

Verse ( Same Chords Again)

Chorus (Again Chords)

Then Do The Little Fast Thing Twice

Then the song goes up a whole step so then the chords would change to:

e|-7—-7-—7—-7--7--7--9--9--|
B|-7—-7-—7--7--8--8--7--7--|
G|-7—-7—-7--7--7--7--6--6--|
D|-------------------------|
A|-------------------------|
E|-------------------------|

It’s the same pattern too, it’s both the verse and chorus. 

Repeat this faster part twice: (whole step higher too)

e|-------------------------------------|
B|-------------------------------------|
G|-7-9-11-9-7-9-11-9-7-----------------|
D|---------------------11-9--9-7-------|
A|-------------------------------9-7---|
E|-------------------------------------|

e|------------------------------------------------------|
B|-----------------------10-12~--10-8-7---10-8-7--------|
G|-7-9-11-9-7-9-10-11-12----------------9--------9-7\---|
D|------------------------------------------------------|
A|------------------------------------------------------|
E|------------------------------------------------------|

questions/comments/suggestions/praises/hatemail?

email me: i_heart_interpol@hotmail.com

Please Rate. Thanks.
Suggest correction
Give kudos to tab author, rate the tab!
1 2 3 4 5
comments
print report bad tab
guest
You may want to rate the tab now too:
select rating
Wanna post a correction for this tab? Suggest correction