Oops, an error
Loading. Please wait.

Luna Tab

version 2
version 2

Whole song

3,241 views 1 this week
1 commentread comment
1 2 3 4 5
x 3
add to favorites
launch autoscroll
font size
0
reset
how to read this tab
guitar tuner
Autoscroll
slow
fast
+/-
esc
set tempo
stop
Help us to improve Ultimate-Guitar.com Take our survey!
×
Author
Difficulty
intermediate
----------------------------------------------------------------------------
                             "Luna" - as recorded by Juanes
----------------------------------------------------------------------------
Tabbed by: bopsalot
Email: bopsalot@hotmail.com

Tuning: Standard

Intro:  Mandolin arranged for guitar 2

e|-9h10-10-10---------------------9-9h10-10-10--------------------9|
B|------------12--10----10-10-10--------------12--10----10-10-10---|
G|-----------------------------------------------------------------|
D|-----------------------------------------------------------------|
A|-----------------------------------------------------------------|
E|-----------------------------------------------------------------|

e|-9h10-10-10---------------------------------10-------------------|
B|------------12--10----10-10-10--9--8------8-----10----10-10-10--9|
G|-----------------------------------------------------------------|
D|-----------------------------------------------------------------|
A|-----------------------------------------------------------------|
E|-----------------------------------------------------------------|repeat

Guitar 1

e|-----------------------------------------------------------------|
B|-x--10--x--10----------5--5-----5--x--10--x--10--------5--5-----5|
G|-x--11--x--11----------6--6-----6--x--11--x--11--------6--6-----6|
D|-x--12--x--12----------7--7-----7--x--12--x--12--------7--7-----7|
A|-----------------------------------------------------------------|
E|-----------------------------------------------------------------|

e|-----------------------------------------------------------------|
B|-x--10--x--10----------5--5-----5-----5---x---5--------5--5-----5|
G|-x--11--x--11----------6--6-----6-----4---x---4--------6--6-----6|
D|-x--12--x--12----------7--7-----7-----3---x---3--------7--7-----7|
A|-----------------------------------------------------------------|
E|-----------------------------------------------------------------|repeat

Main theme:

e|-----------10---------------5-------------------10------------5----|
B|--------10----------------5---5--------------10-------------5---5--|
G|-----11----------------6-----------------11---------------6--------|
D|-12----------------7-----------------12---------------7------------|
A|-------------------------------------------------------------------|
E|-------------------------------------------------------------------|
   (let ring---)    (let ring----)     (let ring----)   (let ring----|

e|-----------10---------------5-------------------5-------------5--|
B|--------10----------------5---5--------------5--------------5---5|
G|-----11----------------6-----------------4----------------6------|
D|-12----------------7-----------------3----------------7----------|
A|-----------------------------------------------------------------|
E|-----------------------------------------------------------------|repeat repeatedly!

Bridge:

e|----3--3-----3------------------------3--3-----3-----------------|
B|----3--3-----3------5--5-----5--------3--3-----3-------5--5-----5|
G|----4--4-----4------6--6-----6--------4--4-----4-------6--6-----6|
D|--------------------7--7-----7-------------------------7--7-----7|
A|-----------------------------------------------------------------|
E|-----------------------------------------------------------------|repeat once

(The mandolin here could be simulated as guitar 2 by rapidly arpeggiating G and A chords 
the 12th and 14th frets, respectively)

Fill that leads into chorus:


e|-------------------------------------------------------3---------|
B|--------------------------------------5--------------------------|
G|--------------------6--------------------------------------------|
D|----7------------------------------------------------------------|
A|-----------------------------------------------------------------|
E|-----------------------------------------------------------------|
let all notes ring, as this is a guitar arrangement of the cheesy Beatles-esqe voice 
that precedes the chorus

Chorus:

(same as intro with one slight variation on guitar 2 [mandolin] as follows:

e|-9h10-10-10---------------------9-9h10-10-10--------------------9|
B|------------10--------10-10-10--------------10--------10-10-10---|
G|-----------------------------------------------------------------|
D|-----------------------------------------------------------------|
A|-----------------------------------------------------------------|
E|-----------------------------------------------------------------|

e|-9h10-10-10---------------------------------10-------------------|
B|------------10--------10-10-10--9--8------8-----10----10-10-10--9|
G|-----------------------------------------------------------------|
D|-----------------------------------------------------------------|
A|-----------------------------------------------------------------|
E|-----------------------------------------------------------------|

And finally, the mandolin solo arranged for guitar:

e|-----------------------------------------------------------12--14-15|
B|-12--12-------12--------12-----------12----------12-14--15----------|
G|--------14-15-----14-15--------14-15-------14-15--------------------|
D|--------------------------------------------------------------------|
A|--------------------------------------------------------------------|
E|--------------------------------------------------------------------|

e17--17p15p14---17-14-----17-14----14-----------17--17--17--17--17--17--17---|
B------------h15-----15-14-----15----15------15---14-------------------------|
G--------------------------------16----16-14----------16--14-----------------|
D-------------------------------------------------------------17--16--14--12-|
A----------------------------------------------------------------------------|
E----------------------------------------------------------------------------|

e|-----------------------------------------------------------------------|
B|---------------------------12-12-12-----------15---------12-14-15-14-12|
G|12/14-*-*-*-12/14-*-*-*-*-*----------14-14-14------12-14---------------|
D|-----------------------------------------------------------------------|
A|-----------------------------------------------------------------------|
E|-----------------------------------------------------------------------|

e|-------------------------------------------------15--12-14-15-15/17-17~~|
B|------------15--------12-14-15-14-12------------------------------------|
G|-14--14-14------12-14----------------12--12-12--------------------------|
D|------------------------------------------------------------------------|
A|------------------------------------------------------------------------|
E|------------------------------------------------------------------------|

I did my best to indicate rests and longer notes, but with this format exact spacing is 
 Play along with the song to get the feel. Those stars i used in the solo indicate 
14th fret A notes.  The 14s were too long to fit in the tab template lol.  Have fun!


| /  slide up
| \  slide down
| h  hammer-on
| p  pull-off
| ~  vibrato
| +  harmonic
| x  rhythm slash
| *  repeated notes
============================================================================
Suggest correction
Give kudos to tab author, rate the tab!
1 2 3 4 5
comments
print report bad tab
1 comment total.
0 reply
fish42 21 Jan 21, 2009 12:22 PM

Hey I think to get the full sound of each chord, underneath the "guitar 1 part" I think one should play the high e note

guest
You may want to rate the tab now too:
select rating
Wanna post a correction for this tab? Suggest correction