Oops, an error
Loading. Please wait.

Me Enamora (Unplugged) Tab

187 views 3 this week
no commentswrite comment
1 2 3 4 5
3 more votes to show rating
add to favorites
launch autoscroll
font size
0
reset
how to read this tab
guitar tuner
Autoscroll
slow
fast
+/-
esc
set tempo
stop
Help us to improve Ultimate-Guitar.com Take our survey!
×
Aqui esta Esta rola tan esperada mas que nada por el solo :3
y los tabs y por todo la saque yo mismo,Me tarde algo,unas 3 hrs
nomas pero aqui esta yo estaba esperando a que alguien la subiera
pero mejor lo hice yo aclaro esta es la primera transcripcion
de esta version de la rola la subi antes de que terminara el 2012
para que la toquen en la velada de año nuevo xD jaja
bueno ,disfrutenla espero y les guste!:)


______________________________________________________________________

 Guitarra 1 (acordes) Afinacion : F#(Capo en 2)

 Guitarra 2 (tabs y acompañamiento) afinacion : E (Normal)


______________________________________________________________________

 Notas:
 -los acordes de la guitarra 2 estaran sobre el acorde
  representado asi decides si tocarla con capo o no
  o bien tocarla en conjunto.(los acordes con capo estarán
  Abajo)

 -Las guitarras deben estar afinadas igual se pueden afinar
  Exacatamente Igual con el método clásico se aplica
  sonando la 6ta cuerta(E) al mismo tiempo
  Hasta dejarlas iguales y afinarla con el método básico
  Y después ya poner el capo,si no sonara mal.

 -Los Power Chords de la Guitarra 1 van con palm muting
  y suenan sin muteo cada que se marca el compas

 -Las dos guitarras deben ser acústicas

 -pueden reemplazar los powerchords (quintas) por las quintas con
  Octava ejemp: G5 = G5/8 ustedes decidan cual le queda mejor
  A su voz y su estilo
_________________________________________________________________________


Acordes:

Guitarra 1(capo en 2):

          E A D G B E

Dsus2   : x/0/0/2/3/x
F       : 1/3/3/2/1/1
G       : 3/2/0/0/3/3
D       : x/3/2/0/1/x
A#      : x/1/3/3/3/1
Gm      : 3/1/0/0/3/3


Guitarra 2 :

          E A D G B E

G5      : 3/5/5/x/x/x
E5      : 0/2/2/x/x/x
D5      : 10/12/12/x/x/x
A5      : 5/7/7/x/x/x
C5      : 8/10/10/x/x/x
G5/12   : x/x/5/7/8/x
Gb5/12  : x/x/4/6/7/x
E5/12   : x/x/2/4/5/x
D/12    : x/x/x/2/3/x
C/12    : x/x/x/0/1/x
G5/8    : x/5/5/7/x/x
Gb5/8   : x/4/4/6/x/x
E5/8    : x/9/9/12/x/x
A5/8    : x/7/7/9/x/x
C5/8    : x/x/5/5/8/x
D5/8    : x/7/7/10/x/x

________________________________________________________________________


Intro: (Guitarra 2)


E |-0--0-0---------0-0-0-----------------------------|
B |-0-3-2---0-0---0-3-2---0-0------0-3-2-2h0-0-------|
G |--------0-2--0--------0-2--0-0h2---------2-2------|
D |-------------0-------------2-2---------------2----|
A |--------------------------------------------------|
E |---------------------------------------------0----|


E5/(12)
Dsus2
Cada blanco de mi mente

Se vuelve color con verte

Y el deseo de tenerte
               G5/12 - Gb5/12 - E5/12
F              G
Es más fuerte, es más fuerte
Dsus2
Sólo quiero que me lleves

De tu mano por la senda

Y atravesar el bosque

G5          A5
F           G
Que divide nuestras vidas

A#         F            Gm     A#     C
Hay tantas cosas que me gustan hoy de ti?


CORO

     G5
      F
Me enamora que me hables con tu boca
     D5
     C
Me enamora que me eleves hasta el cielo
     C5                              G5
     A#                              F
Me enamora que de mi sea tu alma soñadora
     G5/12-Gb5/12-E5/12
     F         Dsus2
Esperanza de mis ojos
                           D5/12
                           C
Sin ti mi vida no tiene sentido
                              C5/12
                              A#
Sin ti mi vida es como un remolino
                   D5/12       C5
                   C           A#
De cenizas que se van oh oh oh oh
                     D5
                     C
Volando con el viento?


(Aquí el tan esperado solo! hacemos un bend de tono y medio con
slide hacia atrás sin bajar el bend un poco complicado
pero vale la pena ;))

e |-------------------------------------3-3---------------------|
B |-9b(12)s8b(10)(10)r8-8v-----5/3-3b(5)---3-3-3b(5)(5)r3-------|
G |-------------------------------------------------------------|
D |-------------------------------------------------------------|
A |-------------------------------------------------------------|
E |-------------------------------------------------------------|


E |----------------------------7-10h7---7---15-14-12------------|
B |----------------------8-8h10-------10------------15-14-12----|
G |-7h4-------4-6-7-7-7h9-9---------------------------------14--|
D |----5h3-3h5-7-7-9-9------------------------------------------|
A |-------7-----------------------------------------------------|
E |-------------------------------------------------------------|


e |--------------------------------------------------------------|
B |---------10-8h10h8--8-----------------------------7-8-10------|
G |-12h10h12---------11-11-9-9h7-7--------------7h9h7------------|
D |-----------------------------9-9---------7--9-----------------|
A |--------------------------------7-10h7h10---------------------|
E |--------------------------------------------------------------|

e |--------------------------------------------------------------|
B |-10h8-------11h8-----8-10h8-----------8-10-8-10/12------------|
G |------9/7/9-----9-7-9------9-7-7-9-7-9------------------------|
D |------------------------------9-------------------------------|
A |--------------------------------------------------------------|
E |--------------------------------------------------------------|


E5/12
Dsus2
Yo no sé si te merezco

Sólo sé que aún deseo

Que le des luz a mi vida
              G5/12-Gb5/12-E5/12
F             G
En los días venideros
E5/12
Dsus2
Léeme muy bien los labios

Te lo digo bien despacio

Por el resto de mis días
G4              A5
F               G
Quiero ser tu compañía
C5         G5           A5            D5
A#         F            Gm         A# C
Hay tantas cosas que me gustan hoy de ti?


Coro:

     G5
      F
Me enamora que me hables con tu boca
     D5
     C
Me enamora que me eleves hasta el cielo
     C5                              G5
     A#                              F
Me enamora que de mi sea tu alma soñadora
     G5/12-Gb5/12-E5/12
     F         Dsus2
Esperanza de mis ojos
                           D5/12
                           C
Sin ti mi vida no tiene sentido
                              C5/12
                              A#
Sin ti mi vida es como un remolino
                   D5/12       C5
                   C           A#
De cenizas que se van oh oh oh oh    [X2]


Cualquier  duda  mi twitter es @IAmJorgeAguiar
Espero la hayan disfrutado :)

25/12/12
Suggest correction
Give kudos to tab author, rate the tab!
1 2 3 4 5
comments
print report bad tab
guest
You may want to rate the tab now too:
select rating
Wanna post a correction for this tab? Suggest correction