Oops, an error
Loading. Please wait.

Me Enamora Tab

version 2
version 2

Whole song

Interactive

24,223 views 12 this week
2 commentsread comments
1 2 3 4 5
excellent!
x 4
add to favorites
launch autoscroll
font size
0
reset
how to read this tab
guitar tuner
Autoscroll
slow
fast
+/-
esc
set tempo
stop
Help us to improve Ultimate-Guitar.com Take our survey!
×
Author
Efren94 39
h - Hammer On
p - Pull Off
/ - Slide (Slide In, Slide Out)
b - Full Bend
br - Full Bend/Release
b¾r - 3/4 Bend/Release


************************************
[Riff1](0:00)(1:16) - Guitar1 (Juanes) {G. Eléctrica}
                    - Guitar2 {G. Eléctrica}
                    - Bajo

/La Guitarra2 y el Bajo tocan lo mismo hasta el seg. 6/

e|----------------------------|----------------------------|
B|---5---5---5----5-----------|---5---5---5----5-----------|
G|-4---7---6----4------4--4~--|-4---7---6----4------4--4~--|
D|-------------------7----5~--|-------------------7----5~--|
A|----------------------------|----------------------------|
E|----------------------------|----------------------------|
<--Guitar1
-->Guitar2, Bajo
G|----------------------------|----------------------------|
D|----------------------------|----------------------------|
A|----------------------------|----------------------------|
E|------------------------3~--|---------------------3--0~--|

e|---------------|------------------------|
B|---------------|------------------------|
G|-------4/7-6~--|------------------------|
D|---5-7---------|-5h7-5---5--5-----------|
A|-7-------------|-------7------7--7-7-5--|
E|---------------|------------------------|
<--Guitar1
-->Guitar2, Bajo
G|---------------|-4h6-6---4--4-----------|
D|---------------|-------7------5--5-5-4--|
A|---------------|------------------------|
E|-----------5~--|------------------------|
                   # Aquí solo Guitar2 #

************************************
[Riff2] (0:09) - Guitarra1
               - Bajo

e|----------------------------------|
B|----------------------------------|
G|-----9---7---9-------7------------|
D|-----------------9------7------5--|
A|----------------------------------|
E|----------------------------------|(x4)
<--Guitarra1
-->Bajo
G|----------------------------------|
D|-----------------------/7------5/-|
A|----/7---5---7---2-2-5------------|
E|-0-0------------------------------|(x4)

************************************
[Solo] - Guitarra1
/Después de tocar el Riff1/
  (1:24)            (1:26)
e|-----------------|----------------------------------|
B|--8br------------|----------------------------------|
G|------9-7--------|-----------------7----------------|
D|----------9-7-5~-|-------5---5-7/9---7h9p7-5--------|
A|-----------------|-7-5-7---7-----------------7-5-7~-|
E|-----------------|----------------------------------|

  (1:28)
e|-------------------------------------------|
B|-----------------------8---8-10-10b¾r-8---8|
G|---------------7---7-9---9--------------9--|
D|-------5---5/7---9-------------------------|
A|-7-5-7---7---------------------------------|
E|-------------------------------------------|

  (1:31)
e|----10----10----10----10----10---|
B|-10b---10b---10b---10b---10b---12|
G|---------------------------------|
D|---------------------------------|
A|---------------------------------|
E|---------------------------------|

  (1:34)
e|-15-14p12--12-15-14p12--12-15-14p12--12|
B|---------15------------15----------15--|
G|---------------------------------------|
D|---------------------------------------|
A|---------------------------------------|
E|---------------------------------------|

  (1:36)
e|-15-17-15h17p15-----12------------------------------|
B|---------------17-15--15-12-15b-15-12----12---------|
G|--------------------------------------14----14-12-9~|
D|----------------------------------------------------|
A|----------------------------------------------------|
E|----------------------------------------------------|

  (1:39)
e|----------------------------------------------------|
B|---8-10b¾r-10----8-10b¾r-10b¾r----------------------|
G|-9----9b¾r--9--9----9b¾r--9b¾r-12/9-7-9-7-----------|
D|------------------------------------------9-7-9-7---|
A|--------------------------------------------------10|
E|----------------------------------------------------|

  (1:42)
e|-----------------------------|
B|-------------------------8~--|
G|-------------7---7-7-9-9-----|
D|-----7---7h9---9-------------|
A|-7-10-10---------------------|
E|-----------------------------|
Suggest correction new What's this?
You can suggest a correction to this tab. Community and Mods will review your correction and vote to approve or reject it.
comments
print report bad tab
2 comments total.
+2 reply
divinorum69 1,803 wrote on April 5 2010, 06:28 pm

Muy buen tab, pero le faltan todos los acordes del medio!

0 reply
javy-chavez 11 wrote on August 4 2015, 06:07 pm

muy buena tab!!

guest
You may want to rate the tab now too:
select rating
Please do not post tabs as comments. Select "correction" instead!