Oops, an error
Loading. Please wait.

Minas Piedras Tab

by Juanes
43 views 3 this week
no commentswrite comment
1 2 3 4 5
3 more votes to show rating
add to favorites
×
Save as Personal and add changes to this tab that will be seen only by you. Learn more ›
×
You can save this tab as Personal to edit and correct it or add notes. All changes will be seen only by you. Learn more »
save as personal
new!
launch autoscroll
font size
0
reset
how to read this tab
guitar tuner
Autoscroll
slow
fast
+/-
esc
set tempo
stop
esta es la primera ke hago para la kuerda...
depronto hay ke korregir algo, ahy esta mi korreo
se les kiere desde kolombia.

solo:

1|------4--3--4--3--1-------------------4-----------|
2|--4------------------555555-----4-5-7---888888----|
3|-------------------------------5------------------|
4|--------------------------------------------------|
5|--------------------------------------------------|
6|--------------------------------------------------|

1|-----6--------------------------------------------|
2|-8-9---9-8-9v-6--8-9-11-9-8-9---------------------|
3|------------------------------10------------------|
4|--------------------------------------------------|
5|--------------------------------------------------|
6|--------------------------------------------------|

1|--------------------3-4-4/5-4----8-4--------------|
2|-----------5-3-1-2-------------6------------------|
3|-----3-5-3----------------------------------------|
4|--5-----------------------------------------------|
5|--------------------------------------------------|
6|--------------------------------------------------|


1|--------6--8--5-----5-----------------------------|
2|--6--9-----------8--------------------------------|
3|--------------------------------------------------|
4|--------------------------------------------------|
5|--------------------------------------------------|
6|--------------------------------------------------|
Suggest correction
Give kudos to tab author, rate the tab!
1 2 3 4 5
comments
print report bad tab
guest
Wanna post a correction for this tab? Suggest correction