Oops, an error
Loading. Please wait.

Mis Planes Son Amarte chords

by Juanes
112 views 12 this week
no commentswrite comment
1 2 3 4 5
3 more votes to show rating
add to favorites
×
Save as Personal and add changes to this tab that will be seen only by you. Learn more ›
×
You can save this tab as Personal to edit and correct it or add notes. All changes will be seen only by you. Learn more »
launch autoscroll
font size
0
reset
transpose
0
reset
simplify chords
display chords
guitar tuner
edit
Autoscroll
slow
fast
+/-
esc
set tempo
stop
About this tab version
Excelente cancion homonima del nuevo album de Juanes. Was this info helpful? Yes No
Strumming
There is no strumming pattern for this song yet. and get +5 IQ
[Intro] 


A  G#7  C#m7  E  E7


[Verse]


    A
No sé
            G#7
por donde empezar
                  C#m7
nos invade el silencio
     E                 E7     A
y empiezo a sentir el frío, no.


[Pre- Chorus]


                 G#7                        C#m7
Mis planes son amarte y los tuyos son a la luna.

             E            E7             A
Que importa nena si el destino esta jugado
                      G#7
mis cartas yo ya he tirado
                         C#m7
los miedos ya están a un lado,
                      E
espero los tuyos también.

              E7           A
Por que vamos a vencer pronósticos
              G#7
tu yo seremos únicos,
                    C#m7
un romance un poco ilógico
       E            E7                   A
si tu amor se ve nublado lo iluminare con besos.

                       G#7
El clima cambiara haciendo el amor,
                        C#m7
tu sonrisa que hace salir el sol
                 E            E7         A    G#7
no hay preocupación, todo va a salir mejor
                  C#m7   E   E7
todo va a salir mejor.


[Solo]
      
E |----------------------------------------------------|
B |--------9-----------------------------7-----7-------|
G |--------------9--------------------------9-----9----|
D |----------------------------------------------------|
A |----------------------------------------------------|
E |----------------------------------------------------|

----------------------------------------------------|
--7-----7s-9-----------------------------9--12-9----|
--------------11------------------------------------|
----------------------------------------------------|
----------------------------------------------------|
----------------------------------------------------|

  
----------------------------------------------------|
--12-14-14----14----12------------------------------|
----------------------------------------------------|
----------------------------------------------------|
----------------------------------------------------|
----------------------------------------------------|

   
--------------------------12b---------12------------|--9-------------||
--------14-12---------------------------------------|----------------||
--------------13-11-9-------------------------------|----------------||
----------------------------------------------------|----------------||
----------------------------------------------------|----------------||
----------------------------------------------------|----------------||


[Verse]

   A
No sé
             G#7
por donde empezar
                  C#m7
nos invade el misterio
     E                 E7     A
y empiezo a sentir el frío, no.

             G#7                        C#m7
Mis planes son amarte y los tuyos son a la luna.



[Pre-chorus]
             E            E7             A
Que importa nena si el destino esta jugado
                      G#7
mis cartas yo ya he tirado
                         C#m7
los miedos ya están a un lado,
                      E
espero los tuyos también.


[Chorus]

              E7           A
Por que vamos a vencer pronósticos
              G#7
tu yo seremos únicos,
                    C#m7
un romance un poco ilógico
       E            E7                   A
si tu amor se ve nublado lo iluminare con besos.
                       G#7
El clima cambiara haciendo el amor,
                        C#m7
tu sonrisa que hace salir el sol
                 E            E7         A    G#7
no hay preocupación, todo va a salir mejor
                  C#m7  E  E7
todo va a salir mejor
                   A
todo va a salir mejor.


[Bridge]

 A  G#7  C#m7  E  E7 (2x)



[Chorus]

              E7           A
Por que vamos a vencer pronósticos
              G#7
tu yo seremos únicos,
                    C#m7
un romance un poco ilógico
       E            E7                   A
si tu amor se ve nublado lo iluminare con besos.
                       G#7
El clima cambiara haciendo el amor,
                        C#m7
tu sonrisa que hace salir el sol
                 E           E7         A    G#7
no hay preocupación todo va a salir mejor



[End]
                  C#m7  E  E7
todo va a salir mejor.

                   A   G#7   C#m7   E   E7  A
Todo va a salir mejor…

            
            
Suggest correction
Creating personal tab
Creating personal tab
You can edit any tab online and save it as your Personal.

You can edit, replace or remove any tab part or add personal notes – all changes will be seen only by you.

Personal tabs can be accessed anytime from any device, even offline.
Learn more »
Give kudos to tab author, rate the tab!
1 2 3 4 5
comments
print report bad tab
guest
You may want to rate the tab now too:
select rating
Wanna post a correction for this tab? Suggest correction