Oops, an error
Loading. Please wait.

Nada Valgo Sin Tu Amor Tab

version 2
version 2

Whole song

Interactive

1,326 views 1 this week
no commentswrite comment
1 2 3 4 5
please rate
add to favorites
launch autoscroll
font size
0
reset
how to read this tab
guitar tuner
Autoscroll
slow
fast
+/-
esc
set tempo
stop
Help us to improve Ultimate-Guitar.com Take our survey!
×
Author
Nada Valgo Sin Tu Amor - Juanes
-------------------------------------------------------------------------------
Tabbed by:ME
Email:andresito231292@hotmail.com

Tuning:Standar

e|---------------------------------------------------------------------------|
B|-------0--1--0-------------0--1--0-------------0--1--0-----1---------------|
G|-0--2-----------2----0--2-----------2----0--2-----------2------------------|
D|---------------------------------------------------------------------------|
A|---------------------------------------------------------------------------|
E|---------------------------------------------------------------------------|

e|---------------------------------------------------------------------------|
B|----------0--1--0-------------0--1--0------------------------0--1--0-------|
G|-0--0--2-----------2----0--2-----------2----2--0--0----0--2-----------2----|
D|---------------------------------------------------------------------------|
A|---------------------------------------------------------------------------|
E|---------------------------------------------------------------------------|

e|---------------------------------------------------------------------------|
B|-------0--1--0-------------0--1--3--1--0-------------0--1--0---------------|
G|-0--2-----------2----0--2-----------------2----0--2-----------2------------|
D|---------------------------------------------------------------------------|
A|---------------------------------------------------------------------------|
E|---------------------------------------------------------------------------|

e|---------------------------------------------------------------------------|
B|-------0--1--0-----------------------------0--1--0------------0--1--3--1---|
G|-0--2-----------2----2--0--0---------0--2----------2----0--2---------------|
D|---------------------------------------------------------------------------|
A|---------------------------------------------------------------------------|
E|---------------------------------------------------------------------------|

e|-0--0--0-------------------1-----1-------------------1--0------------------|
B|----------3--3--1--1----2-----2-----2--0--0----0--2--------0---------------|
G|---------------------------------------------------------------------------|
D|---------------------------------------------------------------------------|
A|---------------------------------------------------------------------------|
E|---------------------------------------------------------------------------|

e|---------------------------------------------------------------------------|
B|-3--3--3--1--1----------0--1--0-------------0--1--0------------------------|
G|------------------0--2-----------2----0--2-----------2-------3--3--3--1--1-|
D|--------------------------------------------------------4------------------|
A|---------------------------------------------------------------------------|
E|---------------------------------------------------------------------------|

e|---------------------------------------------------------------------------|
B|-------0--1--0----------------------0--1--0-------------0--1--0------------|
G|-0--2-----------2--0--2--0----0--2-----------2----0--2-----------2---------|
D|---------------------------------------------------------------------------|
A|---------------------------------------------------------------------------|
E|---------------------------------------------------------------------------|

e|---------------------------------------------------------------------------|
B|-3--3--3--3--3--1--0-------------0--1--0----------------0--1--0------------|
G|----------------------2---0--2-----------2---0--0--2-----------2---2--0--0-|
D|---------------------------------------------------------------------------|
A|---------------------------------------------------------------------------|
E|---------------------------------------------------------------------------|

e|---------------------------------------0--0--0-----------------------------|
B|-------0--1--0------------0--1--3--1------------3--3--1--1-----------------|
G|-0--2-----------2---0--2---------------------------------------------------|
D|---------------------------------------------------------------------------|
A|---------------------------------------------------------------------------|
E|---------------------------------------------------------------------------|


e|---------------------------------------------------------------------------|
B|----1-----1------------------1--0-----------------3--3--1------------------|
G|-2-----2-----2--0--0---0--2--------0---------------------------------------|
D|---------------------------------------------------------------------------|
A|---------------------------------------------------------------------------|
E|---------------------------------------------------------------------------|


e|-----------------------------------------------0---0---0---0-0-------------|
B|-1-3-1-3-1-3-1-3-3-1---1-3-1-3-1-3-1-3-3-1---3---3---3---3-----3-----------|
G|---------------------------------------------------------------------------|
D|---------------------------------------------------------------------------|
A|---------------------------------------------------------------------------|
E|---------------------------------------------------------------------------|

e|---------------------------------------------------------------------------|
B|---------------0-3-1-------------------------------------------------------|
G|-0-2-0-2-0-2-0---------1-3-1-3-1-3-1-3-3-1---1-3-1-3-1-3-1-3-3-1-----------|
D|---------------------------------------------------------------------------|
A|---------------------------------------------------------------------------|
E|---------------------------------------------------------------------------|


e|---0---0---0---0-0---------------------------------------------------------|
B|-3---3---3---3-----3-------1-0----------------0--1--0----------0--1--3--1--|
G|-----------------------0-2-----2-0-2-0---0--2--------2---0--2--------------|
D|---------------------------------------------------------------------------|
A|---------------------------------------------------------------------------|
E|---------------------------------------------------------------------------|

e|-0--0--0-------------------------------------------------------------------|
B|----------3--3--1--1-------1-----1-----------------------------------------|
G|------------------------2-----2-----2--0--0-------------0--0---------------|
D|-----------------------------------------------0--2--0---------------------|
A|---------------------------------------------------------------------------|
E|---------------------------------------------------------------------------|
| /  slide up
| \  slide down
| h  hammer-on
| p  pull-off
| ~  vibrato
| +  harmonic
| x  Mute note
Suggest correction
Give kudos to tab author, rate the tab!
1 2 3 4 5
comments
print report bad tab
guest
You may want to rate the tab now too:
select rating
Please do not post tabs as comments. Select "correction" instead!