Oops, an error
Loading. Please wait.

No Siento Penas Tab

version 3
version 3

Whole song

by Juanes
49 views 1 this week
no commentswrite comment
1 2 3 4 5
3 more votes to show rating
add to favorites
launch autoscroll
font size
0
reset
how to read this tab
guitar tuner
×
Best way to learn
"No Siento Penas"
Autoscroll
slow
fast
+/-
esc
set tempo
stop
A esta canción lo que le agregue fue el solo. Los acordes
y el intro  son trabajo de Allan, y pues como me pareció
mal que faltara algo pues aquí esta el solo.

    B7    E     B     G#m   A
e[--2--/--0--/--2--/--4--/--5--]
B[--0--/--0--/--4--/--4--/--5--]
G[--2--/--1--/--4--/--4--/--6--]
D[--1--/--2--/--4--/--6--/--7--]
A[--2--/--2--/--2--/--6--/--7--]
E[--0--/--0--/-----/--4--/--5--]


Intro:
       E             B7
e[--------------------------------]
B[-----0-------------0------------]
G[------1-------------2-----------]
D[----2--2--(x4)----1--1---(x4)---] (x2)
A[---2-------------2--------------]
E[--0-------------0---------------]

(puedes usar el mismo ritmo del intro en el primer verso y
tercer verso o solo rasguea)

Verso:1
E                     B7
Cuando tuuuu me dices a media voz que me amas
E                     B7
Me siento tan sublime como el tibio sol de la mañana

      G#m       A        B            G#m       A        B
e[----------------------------------------------------------------
B[-----4--------5--------3-------------4--------5--------3--------
G[------4--------6--------3-------------4--------6--------3-------
D[----5--5-----7--7-----3--3-(x2)-----5--5-----7--7-----3--3-(x4)-
A[---5--------7--------2-------------5--------7--------2----------
E[--4--------5--------2-------------4--------5--------2-----------

(usa esto en las siguientes dos lineas o puedes solo rasguearlas)

G#m               A          B
Y esto es lo que tu me haces sentir
G#m              A        B
Desde el día en que te conoci


Verso:2   (aki se empieza a rasguear)
E                       B7
Cuando tuuuu me dices a media voz que te ame
E                    B7
Me siento invencible como el huracán más temible

G#m               A          B
Y esto es lo que tú me haces sentir

G#m              A        B
Desde el día en que te conocí

Coro:
          E
No siento penas ni dolores de cabeza
B7
Ni confusion de ninguna naturaleza
E
Ni tampoco siento mas tristeza
B7
Solo siento amor solo siento amor

G#m               A          B
Que por supuesto es todo para ti
G#m              A        B
Desde el día en que te conoci

Solo!!!! (Ora si mi turno...)
(y este es el verdadero solo!!!)

   E                       B7                         E
e|---------------------------------------------------------------|
B|---------------------------------------------------------------|
G|-7b~-7--5-4-5-4~-5-4-5b~-5-4-2-0-2-4-5-7-9-7-5-7b~--5-4-5-7~-7-|
D|---------------------------------------------------------------|
A|---------------------------------------------------------------|
E|---------------------------------------------------------------|
                         B7
e|--------------------------------------|
B|-9b~-x--9b~-x--9b~--7h9~------9b-11---|
G|-------------------------9-11---------|
D|--------------------------------------|
A|--------------------------------------|
E|--------------------------------------|
                 G#m              A
e|----------------------------------------------|
B|-12b-12-12~--12b-12-12~-12-12-12--12-12-12-12-|
G|----------------------------------------------|
D|----------------------------------------------|
A|----------------------------------------------|
E|----------------------------------------------|
          B               G#m                A             B
e|---------------------------------------------------------------|
B|-12-10-9----------------------------12-10-9--------------------|
G|---------11-9--------------9-7--6-7---------11-9---------------|
D|--------------11-9-------------------------------11-9----------|
A|-------------------11-9-7~----------------------------11-9-7~--|
E|---------------------------------------------------------------|


Verso:3

E                     B7
Cuando tú me dices a media voz que no me vaya
E                        B7
Me siento indestructible como un cañón de metralla
      G#m       A        B            G#m       A        B
e[---------------------------------------------------------------
B[-----4--------5--------3-------------4--------5--------3-------
G[------4--------6--------3-------------4--------6--------3------
D[----5--5-----7--7-----3--3----------5--5-----7--7-----3--3-----
A[---5--------7--------2-------------5--------7--------2---------
E[--4--------5--------2-------------4--------5--------2----------
                  Repite esta nota                   Aki das un fuerte
                     [x2] Solo B                      Rasgueo en la nota B

(usa esto en las siguientes dos lineas o puedes solo rasguearlas)

G#m               A          B
Y esto es lo que tu me haces sentir
G#m              A        B
Desde el día en que te conocí

          E
No siento penas ni dolores de cabeza
B7
Ni confusion de ninguna naturaleza
E
Ni tampoco siento mas tristeza
B7
Solo siento amor solo siento amor

          E
No siento penas ni dolores de cabeza
B7
Ni confusion de ninguna naturaleza
E
Ni tampoco siento mas tristeza
B7
Solo siento amor solo siento amor

G#m               A          B
Y esto es lo que tu me haces sentir
G#m              A        B
Desde el día en que te conocí


      E             B7
e[----------------------------0--
B[-----0-----------0---------0---
G[------1-----------2-------1----
D[----2--2--------1--1-----2-----
A[---2-----------2--------2------
E[--0-----------0--------0-------

              (aki mas lento)?????????

Ahí se ven!
Suggest correction
Give kudos to tab author, rate the tab!
1 2 3 4 5
comments
print report bad tab
guest
You may want to rate the tab now too:
select rating
Wanna post a correction for this tab? Suggest correction