Oops, an error
Loading. Please wait.

Para Tu Amor Tab

version 2
version 2

Whole song

Interactive

5,367 views 1 this week
no commentswrite comment
1 2 3 4 5
please rate
add to favorites
launch autoscroll
font size
0
reset
how to read this tab
guitar tuner
Autoscroll
slow
fast
+/-
esc
set tempo
stop
Help us to improve Ultimate-Guitar.com Take our survey!
×
Author
Esta canción se la dediqué a mi ex novia Idun Berenice
un día antes de que cortaramos, nunca supo que se la dedicaba,
la grabe en un disco para que la escuchara y en vez de eso
cortamos asi es que la escuchó pero no le dije que era para
ella, después de tiempo decido sacarla porque pienso que es
una buena rola y porque me encantaria tocársela a la persona
que esté en un futuro a mi lado ya que nunca lo pude hacer con
mi ex, se me adelantó ella primero jaa!!!, pero bueno, la
llevarè siempre en mi corazón. Disfrútenla.

Para tu amor - Juanes

Capo en el 4o traste.

Nota: tener en cuenta que el número señalado en cada nota
es sin contar el capo.

Intro:

E||----------------------------------------------------|
B||---------------------------6----6---------8-8-------|
G||-----------------------------6----6-------8-8-------|
D||-8-8-6-6-6-6-7-7/9-0-----6-----6--------8-8-8-8-----|
A||-6-6-6-6-6-6-6-6/8-0---8--------------6---------6---|
E||-4-4-4-4-4-4-4-4---0-6--------------6---------------|

    Para tu amor lo tengo todo

E||-------------------------|
B||-------------------------|
G||-------------------------|
D||-8-8-6-6-6-6---7-7/9-0---|
A||-6-6-6-6-6-6---6-6/8-0---|
E||-4-4-4-4-4-4---4-4---0---|

desde mi sangre hasta la esencia de mi ser

E||----------------------------------------------------|
B||------------6----6------------------------8-8-------|
G||--------------6----6----------------------8-8-------|
D||----------6-----6-----------------------8-8-8-8-----|
A||--------8-----------------------------6---------6---|
E||------6-----------------------------6---------------|

  y para tu amor que es mi tesoro

E||-------------------------------|
B||-------------------------------|
G||-------------------------------|
D||-8-8-6-6-6-6---------7-7/9-0---|
A||-6-6-6-6-6-6---------6-6/8-0---|
E||-4-4-4-4-4-4---------4-4---0---|

tengo mi vida toda entera a tus pies y tengo tambien

E||----------------------------------------------|
B||------------6----6------------------8---------|
G||--------------6----6----------------8---------|
D||----------6-----6-----------------8-8---------|
A||--------8-----------------------6-------------|
E||------6-----------------------6---------------|

    un corazon         que se        muere por dar amor

E||-----------------------------------------------------|
B||-------6-----6-----------8-8------------6---------4--|
G||-----6---6-----6---------8-8----------6---------5----|
D||---6-------6-----------8-8-8-8------6---------6------|
A||-0-------------------6---------6--0---------6--------|
E||-------------------6---------------------------------|

y que no conoce el fin

E||--------------------------------|
B||---------------------6-----6----|
G||-------------------6---6-----6--|
D||-8-8-8-6-6-0-----6-------6------|
A||-6-6-6-6-6-0---0----------------|
E||-4-4-4-4-4-0--------------------|

un corazon que late por vos

E||----------------------------|
B||-------8-----8-----------8--|
G||-----8---8-----8-----8------|
D||---8-------8-------8---8----|
A||-6---------------6----------|
E||----------------------------|


 * La siguiente parte es con acompañamiento
Nota: recuerde que el capo esta en el 4o traste.

    E   E1   F#m7  B  A  E2  E3

E||-----------2----2--------------|
B||-----------2----4--2-----------|
G||-1---1-----2----4--2---1--2----|
D||-2---3-----2----4--2---4--2----|
A||-2---2-----4----2------2--2----|
E||-----------2----2--------------|


 E                     E1
para tu amor no hay despedidas

        F#m7                  B
para tu amor yo solo tengo eternidad

                             Guitarra 2:

                           E||----------|
                           B||--6/8-0---|
                           G||----------|
                           D||----------|
                           A||----------|
                           E||----------|

   E               E1
y para tu amor que me ilumina

          F#m7                      B
tengo una luna, un arco iris y un clavel

           A
y tengo tambien

      B             A            E
un corazon que se muere por dar amor

  E2        E       A
y que no conoce el fin

      B                  B (arpegio)
un corazon que late por vos

        E           E3      E     A          B
por eso yo te quiero tanto que no se como explicar lo que siento

E           E3       E   A           B
yo te quiero porque tu dolor es mi dolor y no hay dudas

E           E3       E      A        B
yo te quiero con el alma y con el corazon te venero

E            E3       E      A         B (arpegio)
hoy y siempre gracias yo te doy ti mi amor por existir

Solo:


    E         E1            F#m7            B
e|--------------------------------------------------------------|
B|--------------------------------------------------------------|
G|------------------------8-------7-8-9-10-10s12-10-12-10/8-----|
D|--9s10-8---------8-9-10---10-11-------------------------------|
A|---------11-8-11----------------------------------------------|
E|--------------------------------------------------------------|

    E      E1      F#m7         B
e|--------------------------------------------------------------|
B|-9/11-9-8-9---------------------------------------------------|
G|------------8-------------------------------------------------|
D|--------------10----10s11-10-8--------------------------------|
A|-----------------11------------11-10-11-10-8----8-------------|
E|---------------------------------------------11---11----------|


    para tu amor lo tengo todo

E||-------------------------|
B||-------------------------|
G||-------------------------|
D||-8-8-6-6-6-6---7-7/9-0---|
A||-6-6-6-6-6-6---6-6/8-0---|
E||-4-4-4-4-4-4---4-4---0---|

lo tengo todo y lo que no tengo tambien lo conseguiré

                                             Guitarra 2:

                                           E||----------|
                                           B||--6/8-0---|
                                           G||----------|
                                           D||----------|
                                           A||----------|
                                           E||----------|

E||----------------------------------------------|
B||------------6----6------------------8-8-------|
G||--------------6----6----------------8-8-------|
D||----------6-----6-----------------8-8-8-8-----|
A||--------8-----------------------6---------6---|
E||------6-----------------------6---------------|

para tu amor que es mi tesoro

E||-------------------------|
B||-------------------------|
G||-------------------------|
D||-8-8-6-6-6-6---7-7/9-0---|
A||-6-6-6-6-6-6---6-6/8-0---|
E||-4-4-4-4-4-4---4-4---0---|

tengo mi vida toda entera a tus pies

E||----------------------------------------------|
B||------------6----6------------------8---------|
G||--------------6----6----------------8---------|
D||----------6-----6-----------------8-8---------|
A||--------8-----------------------6-------------|
E||------6-----------------------6---------------|


          A
y tengo tambien

      B             A            E
un corazon que se muere por dar amor

  E2        E       A
y que no conoce el fin

      B                  B (arpegio)
un corazon que late por vos

        E           E3      E     A          B
por eso yo te quiero tanto que no se como explicar lo que siento

E           E3       E   A           B
yo te quiero porque tu dolor es mi dolor y no hay dudas

E           E3       E      A        B
yo te quiero con el alma y con el corazon te venero

E            E3       E      A         B (arpegio)
hoy y siempre gracias yo te doy ti mi amor

Outro:

E||------6-------------|
B||--8/6---8-6/8-6/8---|
G||--------------------|
D||--------------------|
A||--------------------|
E||--------------------|

FIN.
Suggest correction
What's this?
You can suggest a correction to this tab. Community and Mods will review your correction and vote to approve or reject it.
comments
We did not receive enough feedback on this tab! Please rate:
print report bad tab
1 2 3 4 5
guest
You may want to rate the tab now too:
select rating
Please do not post tabs as comments. Select "correction" instead!