Oops, an error
Loading. Please wait.

Arboles De La Barranca Tab

197 views 1 this week
no commentswrite comment
1 2 3 4 5
3 more votes to show rating
add to favorites
launch autoscroll
font size
0
reset
how to read this tab
guitar tuner
×
Best way to learn
"Arboles De La Barranca"
Autoscroll
slow
fast
+/-
esc
set tempo
stop
este es el intro
mas o menos


1|-7-5-3--7-5-3--7-7--2-3-5--7-7-5-3-3-----
2|-----------------------------------------  (X3)
3|-7-5-4--7-5-4--7-7--2-4-5--7-7-5-4-4-----
4|-----------------------------------------

G                 D
Arboles de la barranca
                      G
porque no han enverdecido
                     D
es que no los han regado
                     G
con agua del rio florido
me puse a amar a una mujer
            D       G
con la ilusion de amar

me puse a amar a una mujer
            D       G
con la ilusion de amar


1|-7-5-3--7-5-3--7-7--2-3-5--7-7-5-3-3-----
2|-----------------------------------------  (X3)
3|-7-5-4--7-5-4--7-7--2-4-5--7-7-5-4-4-----
4|-----------------------------------------


De esas tres que van pasando
cual te gusta valedor
esa del vestido blanco
me parece la mejor
me puse a amar a una mujer
con la ilusion de amar
me puse a amar a una mujer
con la ilusion de amar

1|-7-5-3--7-5-3--7-7--2-3-5--7-7-5-3-3-----
2|-----------------------------------------  (X3)
3|-7-5-4--7-5-4--7-7--2-4-5--7-7-5-4-4-----
4|-----------------------------------------


Ya me voy pa la barranca
a sembrar surcos de arroz
yo te enseñare chamaca
como se mancuernan dos
me puse a amar a una mujer
con la ilusion de amar
me puse a amar a una mujer
con la ilusion de amar

1|-7-5-3--7-5-3--7-7--2-3-5--7-7-5-3-3-----
2|-----------------------------------------  (X2)
3|-7-5-4--7-5-4--7-7--2-4-5--7-7-5-4-4-----
4|-----------------------------------------

el ultimo punteo va lento con ritmo ranchero

ojala y les guste
pura bufita punk rock
Suggest correction
Give kudos to tab author, rate the tab!
1 2 3 4 5
comments
print report bad tab
guest
You may want to rate the tab now too:
select rating
Wanna post a correction for this tab? Suggest correction