Oops, an error
Loading. Please wait.

Bonita Tab

35 views 1 this week
no commentswrite comment
1 2 3 4 5
3 more votes to show rating
add to favorites
launch autoscroll
font size
0
reset
how to read this tab
guitar tuner
×
Best way to learn
"Bonita"
Autoscroll
slow
fast
+/-
esc
set tempo
stop
e|--------------------------------------------------------------------|
B|--5-5-5---5-5-5---7--5-5--2-3-4--5555---9-7-5-5--5-3-2-3/5-3--------|
G|--------------------------------------------------------------------|
D|--------------------------------------------------------------------|
A|--------------------------------------------------------------------|
E|--------------------------------------------------------------------|

e|--------------------------------------------------------------------|
B|--5-3-2-3-5-7-9-10-11-10-9-7----------------------------------------|
G|--------------------------------------------------------------------|
D|--------------------------------------------------------------------|
A|--------------------------------------------------------------------|
E|--------------------------------------------------------------------|


e|--------------------------------------------------------------------|
B|--5-5-5---5-5-5---7--5-5--2-3-4--5555---9-7-55---5-3-2-3/5-3--------|
G|--------------------------------------------------------------------|
D|--------------------------------------------------------------------|
A|--------------------------------------------------------------------|
E|--------------------------------------------------------------------|

e|--------------------------------------------------------------------|
B|--5-3-2-3-5---------------------------------------------------------|
G|--------------------------------------------------------------------|
D|--------------------------------------------------------------------|
A|--------------------------------------------------------------------|
E|--------------------------------------------------------------------|

C
otra vez en mi soledad
Am
estoy buscando
porlo menos un lugar
F                    G
ke no me haga sufrir mas

C
pensaba ke eras alguien especial
Am
me ekivokado y me has hecho llorar
F                               G
y tu recuerdo no puedo no puedo curar

C                D
y me vienes a decir
            G   F#    B
ke no soy nada para ti
    C
ke eres bonita
   D               G
y no necesitas de mi

C                 D
si supieras el dolor
            G   F#    B
ke kauso tu cruel adios
  C                 D
deveras ke me has roto
        G
el corazon

C Am F G
te e intentado olvidar
pero es inutil
no dejo de pensar y su
recuerdo me hace sufrir mas

C Am F G
ya no puedo llorar mas
estoy cansado de tanto
llorar y no te importa
solo me kieres undir mas

intro

C                 D
pero yo te esperare
G     F#           B
algun dia has de volver
C             D             G
cuando tengas arrugas en tu piel

C                 D
y entonces lloraras y
G   F#       B
te arrepentiras
C                  D
del daño ke me hiciste
G
y tanto mal

y aki lo mismo

y me vienes a decir
ke no soy nada para ti
ke eres bonita
y no necesitas de mi

si supieras el dolor
ke kauso tu cruel adios
deveras ke me has roto
el corazon

de veras ke me has roto
el corazon x2
de veras ke no tienes corazon

intro

esta cancion esta bien chida buena juanones
va pa ti flakita
Suggest correction
Give kudos to tab author, rate the tab!
1 2 3 4 5
comments
print report bad tab
guest
You may want to rate the tab now too:
select rating
Wanna post a correction for this tab? Suggest correction