Oops, an error
Loading. Please wait.

Como Yo Te Amo Tab

19 views 1 this week
no commentswrite comment
1 2 3 4 5
3 more votes to show rating
add to favorites
launch autoscroll
font size
0
reset
how to read this tab
guitar tuner
×
Best way to learn
"Como Yo Te Amo"
Autoscroll
slow
fast
+/-
esc
set tempo
stop
intro

|-----------------------------------------------------|
|-----------------------------------------------------|
|-----------------------------------------------------|
|--------11--9--11--12~~----14~~--19--19--19--18--16~~|
|--9--9-----------------------------------------------|
|-----------------------------------------------------|


|----------------------------------------------------|
|----------------------------------------------------|
|----------------------------------------------------|
|--12~~14~~----19--19--19--19----14--14--14--14--14--|
|----------------------------------------------------|
|----------------------------------------------------|

y el que va en medio de la rola
|-----------------------------------------------
|-----------------------------------------------
|-----------------------------------------------
|-----11--11--9--9--7~~--------------7--6-------
|--9---------------------7--7--7--7--------9--9-
|-----------------------------------------------

|-------------------------------------------
|-------------------------------------------
|-------------------------------------------
|-----9--9--7--7--6~~-----------6-----------
|--7-------------------7-7-7-7-----9--7--7--
|-------------------------------------------

|-----------------------------------------------
|-----------------------------------------------
|-----------------------------------------------
|-----11--11--9--9--7~~--------------7--6-------
|--9---------------------7--7--7--7--------9--9-
|-----------------------------------------------

|-------------------------------------------------
|-------------------------------------------------
|-------------------------------------------------
|-----9--9--7--7--6~~--6--6--6--6--9--9--7--7-----
|--7----------------------------------------------
|-------------------------------------------------


|-------------------
|-------------------
|-------------------
|--9--9--9--11--12--
|-------------------
|-------------------
Suggest correction
Give kudos to tab author, rate the tab!
1 2 3 4 5
comments
print report bad tab
guest
You may want to rate the tab now too:
select rating
Wanna post a correction for this tab? Suggest correction