Oops, an error
Loading. Please wait.

La Puta De Tu Abuela Chords

23 views 1 this week
no commentswrite comment
1 2 3 4 5
3 more votes to show rating
add to favorites
launch autoscroll
font size
0
reset
transpose
0
reset
display chords
guitar tuner
×
Best way to learn
"La Puta De Tu Abuela"
Autoscroll
slow
fast
+/-
esc
set tempo
stop
Pues aki esta otra rolita de los
Juanones para ps todas las awuelas
Ke nomas tan kagando el palo haha
Ezpero ke les wuzte
Todas las notas son en kintas
----------kalifiken--------------

1---------------------------------------------
2 ---------------------------------------------
3--------------5---------6-------7---7---7--
4-------7-------------------------------------
5----------------------------------------------
6---------------------------------------------- (x5)
        D
Esta cancion es
                    B
Para la puta de mi  awuela
                     G
Anda siempre en sus tenis
                    A
La buchaca anda de fuera (no se entiende)
                     D
Y  yo me atravo yo  desir
                      B
Lo ke siento por esa vieja
                   G
Es muy gorda y cabezona
                    A
Ke se valla a la mierda

D-B-G-A (x2)
                    D
Cuando llegamos a la casa

                    B
Saca siempre sus galletas
                      G
Bien crudotas y bien gachas
                      A
Yo me cago en sus galletas
                    D
Y  ya con esta me despido
                      B
Pos de la puta de mi awuela
                   G
Yo no kiero ke me abraze
                   A
Ke se valla a la mierda

D-B-G-A (x2)
1---------------------------------------------
2 ---------------------------------------------
3--------------5---------6-------7---7---7--
4-------7-------------------------------------
5----------------------------------------------
6---------------------------------------------- (x5)

Lo ke va dezpues de aki ba debajo de re
Para atrás i para adelante
I se pasa debajo de Mi i se haze lo mismo
1---------------------------------------------
2 ---------------------------------------------
3--------------5---------6-------7---7---7--
4-------7-------------------------------------
5----------------------------------------------
6---------------------------------------------- (x5)

Ezpero ke le entiendan  awuante punk rock

Un zaludo para toda la banda
De fresnillo zakatekaz
Loz punks de las lomas
I mi nena rozio ke
La kiero un chingo0 haha
ate el chago
Suggest correction
Give kudos to tab author, rate the tab!
1 2 3 4 5
comments
print report bad tab
guest
You may want to rate the tab now too:
select rating
Wanna post a correction for this tab? Suggest correction