Oops, an error
Loading. Please wait.

A Little Lullaby Tab

version 1
version 1

Whole song

Interactive

1,528 views 1 this week
no commentswrite comment
1 2 3 4 5
please rate
add to favorites
launch autoscroll
font size
0
reset
how to read this tab
guitar tuner
Autoscroll
slow
fast
+/-
esc
set tempo
stop
Help us to improve Ultimate-Guitar.com Take our survey!
×
Author
Difficulty
novice
         A Little Lullaby - Jubing Kristianto
                 
Tabber: Reinaldy Rafli

Tempo = 70 - 80
Time Signature = 3/4

Standard Tuning

Legend
== - sustain note
h - hammer on/pull off

               1  2  3       1  2   3      1  2  3       1  2  3
     |         |  |  |       |  |   |      |  |  |       |  |  |
E|--------||---0--0--0----|--0===-------|-------------|-------------|
B|--------||--------------|---------3---|--3===--1----|--1========--|
G|---0----||o-----0===----|-----1====---|-----2===----|--------0----|
D|--------||o-------------|-------------|-------------|-----2-------|
A|--------||---3----------|--2----------|--0----------|-------------|
E|--------||--------------|-------------|-------------|--3----------|


E|--5--5--5----|--5-----3----|--3-----1----|--1----------|--3--3--3----|
B|-------------|-----2-------|-----3-------|--------3----|-------------|
G|-----5-------|-----2-------|-----2-------|-----2-------|-----0-------|
D|--3----------|--2----------|--0----------|-------------|-------------|
A|-------------|-------------|-------------|--3----------|--2----------|
E|-------------|-------------|-------------|-------------|-------------|


E|--3-----1----|--1-----0----|-----0-------|-------------|-----0-------|
B|-------------|--3----------|--------3----|--1--1--1----|--0-----3----|
G|-----0-------|-----0-------|-----0-------|-------------|-------------|
D|-------------|-------------|-------------|-----3-------|-----3-------|
A|--2----------|--3----------|--1----------|--0----------|-------------|
E|-------------|-------------|-------------|-------------|--3----------|

  / 1------------------------|/2------------------------------
E|-------------|-------------||--------------|-------------|-------------|
B|--1==========|==1----------||---1==========|==1-----1----|--1-----1----|
G|-------------|--------0---o||--------------|-------------|-----2-------|
D|--2==========|==2---------o||---2==========|==2----------|-----0-------|
A|-----3--3----|--3----------||------3--3----|--3----------|-------------|
E|-------------|-------------||--------------|-------------|--1----------|

    |  |  |       |  |  |       |  |  |       |  |  |       |  +  |     |
E|-------------|-------------|--------0----|--1--1--1----|--1h-3--1---------|
B|--0--1--3----|--3--0--3----|--1--3-------|--------1----|--------1-----3---|
G|-----0-------|-----0-------|-----0-------|-----2-------|--------2---------|
D|-------------|-------------|-------------|--0----------|------------------|
A|-------------|-------------|--0----------|-------------|------------------|
E|--1----------|--0----------|-------------|-------------|--3---------------|

                                |  |  |       |     |  +  |  +
E|--0----------|-------------|--5--5--5----|--5--------5--3--1----|--3--3--3----|
B|-----0--3----|--1-----1----|-------------|--------0-------------|-----3-------|
G|-----0-------|-----3-------|-----5-------|----------------------|-----4-------|
D|-------------|-----2-------|--3----------|--3-------------------|-------------|
A|--3----------|-------------|-------------|----------------------|-------------|
E|-------------|--0----------|-------------|----------------------|--0----------|

    |     |  +  |  +       |  |  |       |  |  |       |  |  |       |  |  | 
E|--3--------3--1--0----|--1--1--1----|--1--0--1----|-------------|-------------|
B|--------1-------------|-------------|-------------|--3----------|--0--1--3----|
G|--------4-------------|-----2-------|-----0-------|-----0--0----|--0----------|
D|----------------------|--0----------|-------------|-------------|-------------|
A|--0-------------------|-------------|--3----------|--2----------|-----0--2----|
E|----------------------|-------------|-------------|-------------|--3----------|


E|--0--0--0----|--0----------|-------------|-------------|--5--5--5----|
B|-------------|--------3----|--3-----1----|--1----------|-------------|
G|-----0-------|-----1-------|-----2-------|--------0----|-----5-------|
D|-------------|-------------|-------------|-----2-------|--3----------|
A|--3----------|--2----------|--0----------|-------------|-------------|
E|-------------|-------------|-------------|--3----------|-------------|


E|--5-----3----|--3-----1----|--1----------|--3--3--3----|--3-----1----|
B|-----2-------|-----3-------|--------3----|--------3----|-------------|
G|-----2-------|-----2-------|-----2-------|-----0-------|-----0-------|
D|--2----------|--0----------|-------------|-------------|-------------|
A|-------------|-------------|--3----------|--2----------|--2----------|
E|-------------|-------------|-------------|-------------|-------------|

                                                          rit.......      |  |  |
E|--1-----0----|-----0-------|-------------|-----0-------|-------------|------------||
B|--3----------|--------3----|--1--1--1----|--------3----|--1----------|--1======---||
G|-----0-------|-----0-------|-------------|--0-----0----|-------------|--0======---||
D|-------------|-------------|-----3-------|-----3-------|--2----------|--2======---||
A|--3----------|--1----------|--0----------|-------------|-----3--3----|--3======---||
E|-------------|-------------|-------------|--3----------|-------------|------------||

/=== Questions? Ask to me at reinaldyrafli@gmail.com ===\
|============= Ultimate Guitar Archive =================|
\======== http://www.ultimate-guitar.com/ ==============/
Suggest correction
What's this?
You can suggest a correction to this tab. Community and Mods will review your correction and vote to approve or reject it.
comments
We did not receive enough feedback on this tab! Please rate:
print report bad tab
1 2 3 4 5
guest
You may want to rate the tab now too:
select rating
Please do not post tabs as comments. Select "correction" instead!