Oops, an error
Loading. Please wait.

Take It All Back tab

version 1
version 1

Whole song

  • This is an arrangment for 1 or 2 guitars to mimic ... Show more
2,056 views 78 this week
2 commentsread comments
1 2 3 4 5
x 8
add to favorites
×
Save as Personal and add changes to this tab that will be seen only by you. Learn more ›
×
You can save this tab as Personal to edit and correct it or add notes. All changes will be seen only by you. Learn more »
launch autoscroll
font size
0
reset
how to read this tab
guitar tuner
edit
Autoscroll
slow
fast
+/-
esc
set tempo
stop
About this tab version
This is an arrangment for 1 or 2 guitars to mimic the sound of all the banjos, mando's, and guitars in Judah and the Lions "Take it All Back [I've only written 1 so far]. Was this info helpful? Yes No
Do not capo the second(non tab) guitar
-- after fret = quarter note
- after fret = eighth note
etc.
[Chords to be written]


e|-----------------------|-------------------------|------------------------|12-12-12-12-------------|
B|-----------------------|-13-13-13-13-------------|------------------------|------------------------|
G|14-14-14-14-12-12-12-12|-------------12-12-12-12-|14-14-14-14-12-12-12-12-|------------12-12-12-12-|
D|-----------------------|-------------------------|------------------------|------------------------|
A|-----------------------|-------------------------|------------------------|------------------------|
E|-----------------------|-------------------------|------------------------|------------------------|

e|-----------------------|-------------------------|------------------------|12-12-12-12-------------|
B|-----------------------|-13-13-13-13-------------|------------------------|------------------------|
G|14-14-14-14-12-12-12-12|-------------12-12-12-12-|14-14-14-14-12-12-12-12-|------------12-12-12-12-|
D|-----------------------|-------------------------|------------------------|------------------------|
A|-----------------------|-------------------------|------------------------|------------------------|
E|-----------------------|-------------------------|------------------------|------------------------|


e|13-13-------12-12-------|-----------------------|-13-13-------12-12-------|------------------------|
B|------13-13-------------|------------13-13------|-------13-13-------------|------------13-13-------|
G|------------------12-12-|14-14-12-12-------12-12|-------------------12-12-|14-14-12-12-------12-12-|
D|------------------------|-----------------------|-------------------------|------------------------|
A|------------------------|-----------------------|-------------------------|------------------------|
E|------------------------|-----------------------|-------------------------|------------------------|

e|-----------------------|-------------------------|------------------------|12-12-12-12-------------|
B|-----------------------|-13-13-13-13-------------|------------------------|------------------------|
G|14-14-14-14-12-12-12-12|-------------12-12-12-12-|14-14-14-14-12-12-12-12-|------------12-12-12-12-|
D|-----------------------|-------------------------|------------------------|------------------------|
A|-----------------------|-------------------------|------------------------|------------------------|
E|-----------------------|-------------------------|------------------------|------------------------|


e|13-13-------12-12-------|-----------------------|-13-13-------12-12-------|------------------------|
B|------13-13-------------|------------13-13------|-------13-13-------------|------------13-13-------|
G|------------------12-12-|14-14-12-12-------12-12|-------------------12-12-|14-14-12-12-------12-12-|
D|------------------------|-----------------------|-------------------------|------------------------|
A|------------------------|-----------------------|-------------------------|------------------------|
E|------------------------|-----------------------|-------------------------|------------------------|

(muted)

e|-----------------------|-------------------------|------------------------|12-12-12-12-------------|
B|-----------------------|-13-13-13-13-------------|------------------------|------------------------|
G|14-14-14-14-12-12-12-12|-------------12-12-12-12-|14-14-14-14-12-12-12-12-|------------12-12-12-12-|
D|-----------------------|-------------------------|------------------------|------------------------|
A|-----------------------|-------------------------|------------------------|------------------------|
E|-----------------------|-------------------------|------------------------|------------------------|

e|-----------------------|-------------------------|------------------------|12-12-12-12-------------|
B|-----------------------|-13-13-13-13-------------|------------------------|------------------------|
G|14-14-14-14-12-12-12-12|-------------12-12-12-12-|14-14-14-14-12-12-12-12-|------------12-12-12-12-|
D|-----------------------|-------------------------|------------------------|------------------------|
A|-----------------------|-------------------------|------------------------|------------------------|
E|-----------------------|-------------------------|------------------------|------------------------|


(not muted)

e|-----------------------|-------------------------|------------------------|12-12-12-12-------------|
B|-----------------------|-13-13-13-13-------------|------------------------|------------------------|
G|14-14-14-14-12-12-12-12|-------------12-12-12-12-|14-14-14-14-12-12-12-12-|------------12-12-12-12-|
D|-----------------------|-------------------------|------------------------|------------------------|
A|-----------------------|-------------------------|------------------------|------------------------|
E|-----------------------|-------------------------|------------------------|------------------------|

e|-----------------------|-------------------------|------------------------|12-12-12-12-------------|
B|-----------------------|-13-13-13-13-------------|------------------------|------------------------|
G|14-14-14-14-12-12-12-12|-------------12-12-12-12-|14-14-14-14-12-12-12-12-|------------12-12-12-12-|
D|-----------------------|-------------------------|------------------------|------------------------|
A|-----------------------|-------------------------|------------------------|------------------------|
E|-----------------------|-------------------------|------------------------|------------------------|

(muted)

e|-----------------------|-------------------------|------------------------|12-12-12-12-------------|
B|-----------------------|-13-13-13-13-------------|------------------------|------------------------|
G|14-14-14-14-12-12-12-12|-------------12-12-12-12-|14-14-14-14-12-12-12-12-|------------12-12-12-12-|
D|-----------------------|-------------------------|------------------------|------------------------|
A|-----------------------|-------------------------|------------------------|------------------------|
E|-----------------------|-------------------------|------------------------|------------------------|


[Banjo riff to be written]

e|-----------------------|-------------------------|------------------------|12-12-12-12-------------|
B|-----------------------|-13-13-13-13-------------|------------------------|------------------------|
G|14-14-14-14-12-12-12-12|-------------12-12-12-12-|14-14-14-14-12-12-12-12-|------------12-12-12-12-|
D|-----------------------|-------------------------|------------------------|------------------------|
A|-----------------------|-------------------------|------------------------|------------------------|
E|-----------------------|-------------------------|------------------------|------------------------|


e|13-13-------12-12-------|------------------------|
B|------13-13-------------|------------13-13-------|
G|------------------12-12-|14-14-12-12-------12-12-|
D|------------------------|------------------------|
A|------------------------|------------------------|
E|------------------------|------------------------|


e|-----------------------|-------------------------|------------------------|12-12-12-12-------------|
B|-----------------------|-13-13-13-13-------------|------------------------|------------------------|
G|14-14-14-14-12-12-12-12|-------------12-12-12-12-|14-14-14-14-12-12-12-12-|------------12-12-12-12-|
D|-----------------------|-------------------------|------------------------|------------------------|
A|-----------------------|-------------------------|------------------------|------------------------|
E|-----------------------|-------------------------|------------------------|------------------------|


e|13-13-------12-12-------|------------------------|
B|------13-13-------------|------------13-13-------|
G|------------------12-12-|14-14-12-12-------12-12-|
D|------------------------|------------------------|
A|------------------------|------------------------|
E|------------------------|------------------------|


(muted)
e|-----------------------|-------------------------|------------------------|12-12-12-12-------------|
B|-----------------------|-13-13-13-13-------------|------------------------|------------------------|
G|14-14-14-14-12-12-12-12|-------------12-12-12-12-|14-14-14-14-12-12-12-12-|------------12-12-12-12-|
D|-----------------------|-------------------------|------------------------|------------------------|
A|-----------------------|-------------------------|------------------------|------------------------|
E|-----------------------|-------------------------|------------------------|------------------------|

e|-----------------------|-------------------------|------------------------|12-12-12-12-------------|
B|-----------------------|-13-13-13-13-------------|------------------------|------------------------|
G|14-14-14-14-12-12-12-12|-------------12-12-12-12-|14-14-14-14-12-12-12-12-|------------12-12-12-12-|
D|-----------------------|-------------------------|------------------------|------------------------|
A|-----------------------|-------------------------|------------------------|------------------------|
E|-----------------------|-------------------------|------------------------|------------------------|


(not muted)

e|-----------------------|-------------------------|------------------------|12-12-12-12-------------|
B|-----------------------|-13-13-13-13-------------|------------------------|------------------------|
G|14-14-14-14-12-12-12-12|-------------12-12-12-12-|14-14-14-14-12-12-12-12-|------------12-12-12-12-|
D|-----------------------|-------------------------|------------------------|------------------------|
A|-----------------------|-------------------------|------------------------|------------------------|
E|-----------------------|-------------------------|------------------------|------------------------|

e|-----------------------|-------------------------|------------------------|12-12-12-12-------------|
B|-----------------------|-13-13-13-13-------------|------------------------|------------------------|
G|14-14-14-14-12-12-12-12|-------------12-12-12-12-|14-14-14-14-12-12-12-12-|------------12-12-12-12-|
D|-----------------------|-------------------------|------------------------|------------------------|
A|-----------------------|-------------------------|------------------------|------------------------|
E|-----------------------|-------------------------|------------------------|------------------------|


[mando' lick to be written]


(muted)

e|-----------------------|-------------------------|------------------------|12-12-12-12-------------|
B|-----------------------|-13-13-13-13-------------|------------------------|------------------------|
G|14-14-14-14-12-12-12-12|-------------12-12-12-12-|14-14-14-14-12-12-12-12-|------------12-12-12-12-|
D|-----------------------|-------------------------|------------------------|------------------------|
A|-----------------------|-------------------------|------------------------|------------------------|
E|-----------------------|-------------------------|------------------------|------------------------|


e|-----------------------|-------------------------|------------------------|12-12-12-12-------------|
B|-----------------------|-13-13-13-13-------------|------------------------|------------------------|
G|14-14-14-14-12-12-12-12|-------------12-12-12-12-|14-14-14-14-12-12-12-12-|------------12-12-12-12-|
D|-----------------------|-------------------------|------------------------|------------------------|
A|-----------------------|-------------------------|------------------------|------------------------|
E|-----------------------|-------------------------|------------------------|------------------------|


(not muted)

e|-----------------------|-------------------------|------------------------|12-12-12-12-------------|
B|-----------------------|-13-13-13-13-------------|------------------------|------------------------|
G|14-14-14-14-12-12-12-12|-------------12-12-12-12-|14-14-14-14-12-12-12-12-|------------12-12-12-12-|
D|-----------------------|-------------------------|------------------------|------------------------|
A|-----------------------|-------------------------|------------------------|------------------------|
E|-----------------------|-------------------------|------------------------|------------------------|

e|-----------------------|-------------------------|------------------------|12-12-12-12-------------|
B|-----------------------|-13-13-13-13-------------|------------------------|------------------------|
G|14-14-14-14-12-12-12-12|-------------12-12-12-12-|14-14-14-14-12-12-12-12-|------------12-12-12-12-|
D|-----------------------|-------------------------|------------------------|------------------------|
A|-----------------------|-------------------------|------------------------|------------------------|
E|-----------------------|-------------------------|------------------------|------------------------|


e|-----------------------|-------------------------|------------------------|12-12-12-12-------------|
B|-----------------------|-13-13-13-13-------------|------------------------|------------------------|
G|14-14-14-14-12-12-12-12|-------------12-12-12-12-|14-14-14-14-12-12-12-12-|------------12-12-12-12-|
D|-----------------------|-------------------------|------------------------|------------------------|
A|-----------------------|-------------------------|------------------------|------------------------|
E|-----------------------|-------------------------|------------------------|------------------------|



e|13-13-------12-12-------|------------------------|
B|------13-13-------------|------------13-13-------|
G|------------------12-12-|14-14-12-12-------12-12-|
D|------------------------|------------------------|
A|------------------------|------------------------|
E|------------------------|------------------------|

e|-----------------------|-------------------------|------------------------|12-12-12-12-------------|
B|-----------------------|-13-13-13-13-------------|------------------------|------------------------|
G|14-14-14-14-12-12-12-12|-------------12-12-12-12-|14-14-14-14-12-12-12-12-|------------12-12-12-12-|
D|-----------------------|-------------------------|------------------------|------------------------|
A|-----------------------|-------------------------|------------------------|------------------------|
E|-----------------------|-------------------------|------------------------|------------------------|



e|13-13-------12-12-------|------------------------|
B|------13-13-------------|------------13-13-------|
G|------------------12-12-|14-14-12-12-------12-12-|
D|------------------------|------------------------|
A|------------------------|------------------------|
E|------------------------|------------------------|


[Banjo riff to be written]

e|-----------------------|-------------------------|------------------------|12-12-12-12-------------|
B|-----------------------|-13-13-13-13-------------|------------------------|------------------------|
G|14-14-14-14-12-12-12-12|-------------12-12-12-12-|14-14-14-14-12-12-12-12-|------------12-12-12-12-|
D|-----------------------|-------------------------|------------------------|------------------------|
A|-----------------------|-------------------------|------------------------|------------------------|
E|-----------------------|-------------------------|------------------------|------------------------|


e|13-13-------12-12-------|-----------------------|-13-13-------12-12-------|------------------------|
B|------13-13-------------|------------13-13------|-------13-13-------------|------------13-13-------|
G|------------------12-12-|14-14-12-12-------12-12|-------------------12-12-|14-14-12-12-------12-12-|
D|------------------------|-----------------------|-------------------------|------------------------|
A|------------------------|-----------------------|-------------------------|------------------------|
E|------------------------|-----------------------|-------------------------|------------------------|

e|-----------------------|-------------------------|------------------------|12-12-12-12-------------|
B|-----------------------|-13-13-13-13-------------|------------------------|------------------------|
G|14-14-14-14-12-12-12-12|-------------12-12-12-12-|14-14-14-14-12-12-12-12-|------------12-12-12-12-|
D|-----------------------|-------------------------|------------------------|------------------------|
A|-----------------------|-------------------------|------------------------|------------------------|
E|-----------------------|-------------------------|------------------------|------------------------|


e|13-13-------12-12-------|-----------------------|-13-13-------12-12-------|------------------------|
B|------13-13-------------|------------13-13------|-------13-13-------------|------------13-13-------|
G|------------------12-12-|14-14-12-12-------12-12|-------------------12-12-|14-14-12-12-------12-12-|
D|------------------------|-----------------------|-------------------------|------------------------|
A|------------------------|-----------------------|-------------------------|------------------------|
E|------------------------|-----------------------|-------------------------|------------------------|

e|-----------------------|-------------------------|------------------------|12-12-12-12-------------|
B|-----------------------|-13-13-13-13-------------|------------------------|------------------------|
G|14-14-14-14-12-12-12-12|-------------12-12-12-12-|14-14-14-14-12-12-12-12-|------------12-12-12-12-|
D|-----------------------|-------------------------|------------------------|------------------------|
A|-----------------------|-------------------------|------------------------|------------------------|
E|-----------------------|-------------------------|------------------------|------------------------|


e|-----------------------|-------------------------|------------------------|12-12-12-12-------------|
B|-----------------------|-13-13-13-13-------------|------------------------|------------------------|
G|14-14-14-14-12-12-12-12|-------------12-12-12-12-|14-14-14-14-12-12-12-12-|------------12-12-12-12-|
D|-----------------------|-------------------------|------------------------|------------------------|
A|-----------------------|-------------------------|------------------------|------------------------|
E|-----------------------|-------------------------|------------------------|------------------------|


e|13-13-------12-12-------|-----------------------|-13-13-------12-12-------|------------------------|
B|------13-13-------------|------------13-13------|-------13-13-------------|------------13-13-------|
G|------------------12-12-|14-14-12-12-------12-12|-------------------12-12-|14-14-12-12-------12-12-|
D|------------------------|-----------------------|-------------------------|------------------------|
A|------------------------|-----------------------|-------------------------|------------------------|
E|------------------------|-----------------------|-------------------------|------------------------|

(fade)
Suggest correction
Creating personal tab
Creating personal tab
You can edit any tab online and save it as your Personal.

You can edit, replace or remove any tab part or add personal notes – all changes will be seen only by you.

Personal tabs can be accessed anytime from any device, even offline.
Learn more »
comments
print report bad tab
2 comments total.
+1 reply
jglafter 10 Feb 24, 2017 02:56 AM

capo on the 12th fret? is that right?

guest
You may want to rate the tab now too:
select rating
Wanna post a correction for this tab? Suggest correction