Oops, an error
Loading. Please wait.

A Touch Of Evil Bass Tab

version 1
version 1

Whole song

Interactive

4,539 views 6 this week
1 commentread comment
1 2 3 4 5
please rate
add to favorites
launch autoscroll
font size
0
reset
guitar tuner
Autoscroll
slow
fast
+/-
esc
set tempo
stop
Help us to improve Ultimate-Guitar.com Take our survey!
×
Author
Difficulty
intermediate
-------------------------------------------------------------------------------
		      A Touch of Evil - Judas Priest
-------------------------------------------------------------------------------

Tabbed By : Nick Johnson 

  Verse
G|-------------|
D|-------------|
A|-------------|
E|-3-3-3-3-3---|

  Pre-Chorus
G|------------|   |-------------|
D|------------|   |-------------|
A|--3-3-3-3-3-|x2 |-------------| x2
E|------------|   |--3-3-3-3-3--|

  Chorus
G|-----------------|
D|-----------------|
A|----3-8----7-3-5-|
E|-0---------------|

  Bridge and solo
G|-------------------------------|
D|-----9------9-------10------10-|
A|-7-7----7-7-----8-8-----8-8----|
E|-------------------------------|

  Post Solo
G|---------------|-----------------|
D|---------------|-----------------|
A|-3-------5-----|-5-3-------------|
E|-----------0---|------------5-7--|

===============================================================================
Suggest correction
Give kudos to tab author, rate the tab!
1 2 3 4 5
comments
print report bad tab
1 comment total.
0 reply
C. Gartland 10 wrote on August 15 2006, 03:37 pm

Finally someone adds a few Priest Tabs. You Rock

guest
You may want to rate the tab now too:
select rating
Wanna post a correction for this tab? Suggest correction