Oops, an error
Loading. Please wait.

A Touch Of Evil Tab

version 1
version 1

Solo

Whole song

Interactive

10,605 views 6 this week
no commentswrite comment
1 2 3 4 5
accurate
x 4
add to favorites
launch autoscroll
font size
0
reset
how to read this tab
guitar tuner
Autoscroll
slow
fast
+/-
esc
set tempo
stop
Help us to improve Ultimate-Guitar.com Take our survey!
×
Difficulty
advanced
Band: judas priest
Song: a touch of evil
album: painkiller
What part: solo

Glenn solo
standar: tuning E
this solo is complete and the tab it's bettter than the first tab
                          \3/
|-------------------------------|---------------------|---------------------|
|-------------------------------|---------------------|---------------------|
|-------------------------------|---------------------|---------------------|
|--9S-----/---------------------|----------(x )-------| --------------------|
|-------------------------------|---------------------|--/7--------9----10--|
|-------------------------------|---------------------|---------------------|
                                             PH       \0/
|-------------------|----------------------------|-----------|------------------|
|-------------------|----------------------------|-----------|------------------|
|-------------------|---------9------7-----------|-----------|------------------|
|-------/9--7~------|-------------------10--<>9--|----7------|------------------|
|-------------------|--7-------------------------|-----------|--/7------9---10--|
|--8----------------|----------------------------|-----------|------------------|

|-------------------|-----------------|----------------------------------|
|-------------------|-----------------|----------------------------------|
|-------------------|-----------------|----------------------------------|
|-------/9--7~------|-----------------|-------------------------<>12~----|
|-------------------|--7----9----10---|--9------9-10-12-10-9-------------|
|--8----------------|-----------------|----------------------12----------|

|---------------------|----------------------------------------------|
|---------------------|----------------------------------------------|
|--9----/21-----19-17-|---L---19-17--16----------17-16----16---------|
|---------------------|------------------19--19--------19----17-16---|
|---------------------|----------------------------------------------|
|---------------------|----------------------------------------------|

|--------->12b----<>12br----|--15-12-----12-----------------------------|--22b--22b--22b--|
|---------------------------|---------15----15-12-----------------------|-----------------|
|---------------------------|---------------------15-12-14-12-14-12~----|-----------------|
|--14-----------------------|-------------------------------------------|-----------------|
|---------------------------|-------------------------------------------|-----------------|
|---------------------------|-------------------------------------------|-----------------|

|---------------------------------6b------|
|------------ah~---5--5-5-----------------|
|----0---4---4-------------4p3-0----------|
|------2---2---------------------2--------|
|-----------------------------------------|
|-----------------------------------------|

|--11h-12-15p-12p-11----11h-12-15p-12p-11----11h-12-15p-12p-11----11h-12-15p-12p-11-11h-12h-15-|
|--------------------15-------------------15-------------------15------------------------------|
|----------------------------------------------------------------------------------------------|
|----------------------------------------------------------------------------------------------|
|----------------------------------------------------------------------------------------------|
|----------------------------------------------------------------------------------------------|

|---------------10---------------------------------------|--12-----/14----15--|
|--12-10h-11-12----12p-11p-10h-11-10-12----10------------|--------------------|
|---------------------------------------12----12-11~-----|--------------------|
|--------------------------------------------------------|--------------------|
|--------------------------------------------------------|--------------------|
|--------------------------------------------------------|--------------------|

|--\8----/17-------|------------------------------12-15-12-12-15-|
|------------------|--------------------------/12----------------|
|------------------|---------------------------------------------|
|------------------|--16-17---------17---------------------------|
|------------------|--------19---19----19--19--------------------|
|------------------|---------------------------------------------|

|--19-15--------------------18~--\---|--22b--22b--22b------|
|--------17--------------------------|---------------------|
|-----------16-15-12-----------------|---------------------|
|--------------------14-<>-----------|---------------------|
|------------------------------------|---------------------|
|------------------------------------|---------------------|


|---------12-----12-----12-----------|-14p-12----12-14-15-14-19-12h-14-19-12h-14-12h-14h-16-|
|--15b-------15b----15b----15b~------|--------15--------------------------------------------|
|------------------------------------|------------------------------------------------------|
|------------------------------------|------------------------------------------------------|
|------------------------------------|------------------------------------------------------|
|------------------------------------|------------------------------------------------------|

|--12-14h-15-14p-12----12h-14h-15p-14p-12----12h-14-19-|
|-------------------15--------------------15-----------|
|------------------------------------------------------|
|------------------------------------------------------|
|------------------------------------------------------|
|------------------------------------------------------|

|-12h-14-15p-14p-12--------------------------------------|
|-------------------15-14-12h-14h-15p-14-15p-12-15-------|
|--------------------------------------------------14p-12|
|--------------------------------------------------------|
|--------------------------------------------------------|
|--------------------------------------------------------|

|--14p-12----12-15p-14p-12----12h-14-15p-14p-12----|
|---------15---------------15-------------------15-|
|--------------------------------------------------|
|--------------------------------------------------|
|--------------------------------------------------|
|--------------------------------------------------|


Tablature Legend
----------------
x - dead note
g - grace note
> - accentuded note
PH - pitch harmonic
AH - artificial harmonic
h - hammer on
p - pull off
b - bend
\n/ - tremolo bar dip
/ -  slide into from below or out of upwards
\ -  slide into from above or out of downwards
~ - vibrato
TP - tremolo picking
T - tapping
< - fade in
Suggest correction
comments
print report bad tab
guest
You may want to rate the tab now too:
select rating
Please do not post tabs as comments. Select "correction" instead!