Oops, an error
Loading. Please wait.

A Touch Of Evil Bass Tab

version 2
version 2

Whole song

Interactive

2,611 views 3 this week
no commentswrite comment
1 2 3 4 5
accurate
x 4
add to favorites
launch autoscroll
font size
0
reset
guitar tuner
Autoscroll
slow
fast
+/-
esc
set tempo
stop
Help us to improve Ultimate-Guitar.com Take our survey!
×
Author
Difficulty
Tuning
intermediate
D A D G B E
Okay...this is that accual, or closer too bass tab then the other one, to 'A Touch 
of Evil by Judas Priest...First off, i play this in drop D

Here we go...What makes this song difficult, is the rythem in the song, i provided 
the counting underneath the measures.

Intro: (Rest until 22 seconds into the song)
G|-----------------|-----------------|-----------------|
D|-----------------|-----------------|-----------------|
A|-----------------|-----------------|-----------------|
D|-0222--2-02---R--|-0222--2-02---R--|-0222--2-02---R--|
   1e+a  2 +a 3 4    
 
 |---------------------| This riff here, the "-2020-" comes in about a 32nd
 |---------------------| note late, so take a small breath there
 |---------------------|
 |-0222--2-02--020--2--|
   1e+a  2 +a 3e+a  4

Verse 1:
G|-----------------|-----------------|x4
D|-----------------|-----------------|
A|-----------------|-----------------|
D|-0222--2-02---R--|-0222--2-02---R--|

PreChorus:
G|-----------------|-----------------|x2
D|-----------------|-----------------|
A|-----------------|-----------------|
D|-5777--7-57---R--|-0222--2-02---R--|

then:

G|-------------------------|-----------------|
D|-------------------------|-----------------|
A|-0222--2222--3333--5555--|-----------------|
D|-------------------------|-0222--2-02---R--|
   1e+a  2e+a  3e+a  4e+a    


G|------------------|------------------|------------------|
D|------------------|------------------|------------------|
A|------------------|------------------|------------------|
D|-5555--5--77---R--|-5555--5--22---R--|-5555--5--77---R--|
 
 
 |--------------------| counting nightmare, listen to it
 |--------------------| carefully and you will get the
 |--------------------| rythem...
 |-5555--5----6-7-8--9|
   1e+a  2  3 + 4 +  a 


Chorus:
G|--------------|---------------|---------------|--------------|
D|--------------|---------------|---------------|--------------|
A|--------------|------------3--|-2-------------|--------------|
D|-2--2-2~~~~~~~|-5--5-5~~~~~---|------2~~~~2-4-|-5----7~~~~~~~|
   1  2 + 3  4    1  2 +  3  4    1  2 + 3  4 +   1  2 + 3  4  

G|--------------|---------------|---------------|--------------|
D|--------------|---------------|---------------|--------------|
A|--------------|------------3--|-2-------------|--------------|
D|-2--2-2~~~~~~~|-5--5-5~~~~~---|------2~~~~2-4-|-5----7-------|


Preverse:
G|----------------|x4
D|----------------|
A|----------------|
D|-0222-2-02---R--|


Verse 2:
G|----------------|x8
D|----------------|
A|----------------|
D|-0222-2-02---R--|



PreChorus:
G|-----------------|-----------------|x2
D|-----------------|-----------------|
A|-----------------|-----------------|
D|-5777--7-57---R--|-0222--2-02---R--|

then:

G|-------------------------|-----------------|
D|-------------------------|-----------------|
A|-0222--2222--3333--5555--|-----------------|
D|-------------------------|-0222--2-02---R--|
   1e+a  2e+a  3e+a  4e+a    


G|------------------|------------------|------------------|
D|------------------|------------------|------------------|
A|------------------|------------------|------------------|
D|-5555--5--77---R--|-5555--5--22---R--|-5555--5--77---R--|

 |--------------------|
 |--------------------| 
 |--------------------| 
 |-5555--5----6-7-8--9|
   1e+a  2  3 + 4 +  a 



Chorus 2:
G|--------------|---------------|---------------|--------------|
D|--------------|---------------|---------------|--------------|
A|--------------|------------3--|-2-------------|--------------|
D|-2--2-2~~~~~~~|-5--5-5~~~~~---|------2~~~~2-4-|-5----7~~~~~~~|
   1  2 + 3  4    1  2 +  3  4    1  2 + 3  4 +   1  2 + 3  4  

G|--------------|---------------|---------------|--------------|
D|--------------|---------------|---------------|--------------|
A|--------------|------------3--|-2-------------|--------------|
D|-2--2-2~~~~~~~|-5--5-5~~~~~---|------2~~~~2-4-|-5----7-------|


Bridge:
G|--------------|-------------|-------------|-------------|x2
D|--------------|-------------|-------------|-------------|
A|--------------|-------------|-------------|-------------|
D|-2~~~~~~~~~~~~|-3~~~~~~~~~~~|-2~~~~~~~~~~~|-3~~~~~~~~~~~|


Solo: (definately off, but this works nicely)
G|---------------|--------------|---------------|---------------|x6
D|---------------|--------------|---------------|---------------|
A|---------------|-3~~~~2~~~~0~~|---------------|-3~~~~2~~~~8-7-|
D|-2~~~~~2-4---5-|--------------|-2~~~~~2-4---5-|---------------|
   1  2  3 + 4 +   1  2 + 3  4

Breakdown:
G|--------------|-------------|-------------|-------------|
D|--------------|-------------|-------------|-------------|
A|-3~~~~~~~~~~~~|~~~~~~~~~~2--|-------------|-------------|
D|--------------|-------------|-2~~~~~~~~~~~|~~~~~~~~~~~~~|
   1  2  3  4              4

 |--------------|-------------|-------------|-------------|
 |--------------|-------------|-------------|-------------|
 |-3~~~~~~~~~~~~|~~~~~~~~~~2--|-0~~~~~~~~~~~|-2~~~~~~~~~~~|
 |--------------|-------------|-------------|-------------|


Final Prechorus:
G|-----------------|-----------------|x2
D|-----------------|-----------------|
A|-----------------|-----------------|
D|-5777--7-57---R--|-0222--2-02---R--|

then:
                                                Rest for a measure
G|-------------------------|-----------------|-------------|
D|-------------------------|-----------------|-------------|
A|-0222--2222--3333--5555--|-----------------|-------------|
D|-------------------------|-0222--2-02---R--|-R--R--R--R--|
   1e+a  2e+a  3e+a  4e+a                     "you're possessing me"


Final Chorus:
G|--------------|---------------|---------------|--------------|x4
D|--------------|---------------|---------------|--------------|
A|--------------|------------3--|-2-------------|--------------|
D|-2--2-2~~~~~~~|-5--5-5~~~~~---|------2~~~~2-4-|-5----7~~~~~~~|


Outro:
G|----------------|x8
D|----------------|
A|----------------|
D|-0222-2-02---R--|


END

KEY: R= Rest
     ~= let ring
     /=Slide
     Numbers= Quarter note
     += and of beat
     e+a= sixteenth notes

I worked real hard on this tabb, please drop me a line and comment! :) thanks
-mexicanmatt
Suggest correction
comments
print report bad tab
guest
You may want to rate the tab now too:
select rating
Wanna post a correction for this tab? Suggest correction